Oops, an error
Loading. Please wait.

Trampled Underfoot Bass Tab

ver3
ver3

Whole song

More versions @911Tabs.com
4,422 views 9 this week
no commentswrite comment
1 2 3 4 5
excellent!
x 4
add to favorites launch autoscroll
font size
0
reset
Autoscroll
+/-
esc
set tempo
stop
Contributor
WARNING: You are trying to view
                                    content from Ultimate-Guitar.com
                                    in an unauthorized application,
                                    which is prohibited.

                                    Please use an official Ultimate
                                    Guitar Tabs application for iPhone,
                                    iPad or Android to access legitimate
                                    chords, guitar, bass, and drum tabs
                                    from Ultimate-Guitar.com database.

                                    Type "ultimate guitar tabs" in Apple
                                    App Store's or Android Market's
                                    search to find the application.
-------------------------------------------------------------------------------
			     Trampled UnderFoot - Led Zeppelin
-------------------------------------------------------------------------------


Tabbed By : R8:31b

What we have here is something pretty special. we have a standard bass tab 
followed by two supporting Clavinet tabs that have been arranged for the bass.
tab order goes as follows:

Bass
Clavinet (high)
Clavinet (low)

The Clavinet is a type of keyboard instrument JPJ used on this song along with
his Bass Guitar.

Tuning: Standard. 

	Bass
G|-----------------------|--------------------------|--------------------------|
D|-----------------------|--------------------------|--------------------------|
A|-----------------------|--------------------------|--------------------------|
E|-----------------------|--------------------------|--3--3--3---3-3-3---------|
 |	Clavinet (high)
G|---------7----7--------|--------7----7---7\5------|--------7----7------------|
D|---5---5-7-8--5--------|--5---5-7-8-----------8-8-|--5---5-7-8--5------------|
A|-----8-----------8--5--|----8--------8-----8----8-|----8------------8--5-----|
E|-----------------------|--------------------------|--------------------------|
 |	Clavinet (low)
G|-----------------------|--------------------------|--------------------------|
D|----5---5------5-----5-|----5---5-----5-------5---|----5---5------5-----5----|
A|-----------------------|--------------------------|--------------------------|
E|--3---3---3-------3----|--3---3---3------3--------|--3---3---3-------3-------|


G|-----------------------|--------------------------|--------------------------|
D|-----------------------|--------------------------|--------------------------|
A|-----------------------|--------------------------|--------------------------|
E|--3---3---3---3-3-3----|--3---3---3---3-3-3-------|--3---3---3----3-3-3------|
 |
G|---------7----7--------|--------7------7----------|--------7----7------------|
D|---5---5-7-8--5--------|--5---5-7-8----5----------|--5---5-7-8--5------------|
A|-----8-----------8--5--|----8-------------8--5----|----8------------8--5-----|
E|-----------------------|--------------------------|--------------------------|
 |
G|-----------------------|--------------------------|--------------------------|
D|----5---5------5-----5-|----5---5-----5-------5---|----5---5------5-----5----|
A|-----------------------|--------------------------|--------------------------|
E|--3---3---3-------3----|--3---3---3------3--------|--3---3---3-------3-------|


G|-----------------------|--------------------------|--------------------------|
D|-----------------------|--------------------------|--------------------------|
A|-----------------------|--------------------------|---1-------3--------------|
E|--3---3---3---3-3-3----|--3---3---3---3-3-3-------|-------------------3------|
 |
G|---------7-------------|--------7------7----------|---7-------9--------------|
D|---5---5-7-8--5--------|--5---5-7-8----5----------|---8------10--------------|
A|-----8-----------8--5--|----8-------------8--5----|---8------10--------------|
E|-----------------------|--------------------------|--------------------------|
 |
G|-----------------------|--------------------------|--------------------------|
D|----5---5------5-----5-|----5---5-----5-------5---|--------------------------|
A|-----------------------|--------------------------|---1----1-3--------3------|
E|--3---3---3-------3----|--3---3---3------3--------|--------------------------|


G|-----------------------|--------------------------|--------------------------|
D|-----------------------|--------------------------|--------------------------|
A|-----------------------|--------------------------|--------------------------|
E|--3---3---3---3-3-3----|--3---3---3---3-3-3-------|--3---3---3----3-3-3------|
 |
G|---------7----7--------|--------7------7----------|--------7----7------------|
D|---5---5-7-8--5--------|--5---5-7-8----5----------|--5---5-7-8--5------------|
A|-----8-----------8--5--|----8-------------8--5----|----8------------8--5-----|
E|-----------------------|--------------------------|--------------------------|
 |
G|-----------------------|--------------------------|--------------------------|
D|----5---5------5-----5-|----5---5-----5-------5---|----5---5------5-----5----|
A|-----------------------|--------------------------|--------------------------|
E|--3---3---3-------3----|--3---3---3------3--------|--3---3---3-------3-------|


G|-----------------------|--------------------------|--------------------------|
D|-----------------------|--------------------------|--------------------------|
A|-----------------------|--------------------------|--------------------------|
E|--3---3---3---3-3-3----|--3---3---3---3-3-3-------|--3---3---3----3-3-3------|
 |
G|---------7----7--------|--------7------7----------|--------7----7------------|
D|---5---5-7-8--5--------|--5---5-7-8----5----------|--5---5-7-8--5------------|
A|-----8-----------8--5--|----8-------------8--5----|----8------------8--5-----|
E|-----------------------|--------------------------|--------------------------|
 |
G|-----------------------|--------------------------|--------------------------|
D|----5---5------5-----5-|----5---5-----5-------5---|----5---5------5-----5----|
A|-----------------------|--------------------------|--------------------------|
E|--3---3---3-------3----|--3---3---3------3--------|--3---3---3-------3-------|


G|-----------------------|--------------------------|--------------------------|
D|-----------------------|--------------------------|--------------------------|
A|-----------------------|--------------------------|---1-------3--------------|
E|--3---3---3---3-3-3----|--3---3---3---3-3-3-------|--------------------------|
 |
G|---------7-------------|--------7------7----------|---7-------9--------------|
D|---5---5-7-8--5--------|--5---5-7-8----5----------|---8------10--------------|
A|-----8-----------8--5--|----8-------------8--5----|---8------10--------------|
E|-----------------------|--------------------------|--------------------------|
 |
G|-----------------------|--------------------------|--------------------------|
D|----5---5------5-----5-|----5---5-----5-------5---|--------------------------|
A|-----------------------|--------------------------|---1----1-3--------3------|
E|--3---3---3-------3----|--3---3---3------3--------|--------------------------|


	1.|____________________________________________2.|____________to Coda______

G|-----------------------|--------------------------||-------------------------|
D|-----------------------|-------------------------o||--1-----3-3--------------|
A|-----------------------|-------------------------o||-------------------------|
E|--3---3---3-----3------|--3---3---3-----3---------||------------------1------|
 |
G|---------7-------------|--------7------7----------||--8-------8--------------|
D|---5---5-7-8--5--------|--5---5-7-8----5---------o||--8-------7--------------|
A|-----8-----------8--5--|----8-------------8--5---o||-10-------8--------------|
E|-----------------------|--------------------------||-------------------------|
 |
G|-----------------------|--------------------------||-------------------------|
D|----5---5------5-----5-|----5---5-----5-------5--o||--2-------3--3--3-3------|
A|-----------------------|-------------------------o||-------------------------|
E|--3---3---3-------3----|--3---3---3------3--------||-------------------------|


G|-----------------------|--------------------------||-------------------------|
D|-----------------------|--------------------------||-------------------------|
A|-----------------------|--------------------------||-------------------------|
E|--3---3---3-----3------|--3---3---3------3--------||-3--3--3---3-3-3---------|
 |
G|---------7----7--------|--------7----7---7\5------||-------7----7------------|
D|---5---5-7-8--5--------|--5---5-7-8-----------8-8-||-5---5-7-8--5------------|
A|-----8-----------8--5--|----8--------8-----8----8-||---8------------8--5-----|
E|-----------------------|--------------------------||-------------------------|
 |
G|-----------------------|--------------------------||-------------------------|
D|----5---5------5-----5-|----5---5-----5-------5---||---5---5------5-----5----|
A|-----------------------|--------------------------||-------------------------|
E|--3---3---3-------3----|--3---3---3------3--------||-3---3---3-------3-------|


G|-----------------------|--------------------------|--------------------------|
D|-----------------------|--------------------------|--------------------------|
A|-----------------------|--------------------------|--------------------------|
E|--3---3---3---3-3-3----|--3---3---3---3-3-3-------|--3---3---3----3-3-3------|
 |
G|---------7----7--------|--------7------7----------|--------7----7------------|
D|---5---5-7-8--5--------|--5---5-7-8----5----------|--5---5-7-8--5------------|
A|-----8-----------8--5--|----8-------------8--5----|----8------------8--5-----|
E|-----------------------|--------------------------|--------------------------|
 |
G|-----------------------|--------------------------|--------------------------|
D|----5---5------5-----5-|----5---5-----5-------5---|----5---5------5-----5----|
A|-----------------------|--------------------------|--------------------------|
E|--3---3---3-------3----|--3---3---3------3--------|--3---3---3-------3-------|


G|-----------------------|--------------------------|--------------------------|
D|-----------------------|--------------------------|--------------------------|
A|-----------------------|--------------------------|---1-------3--------------|
E|--3---3---3---3-3-3----|--3---3---3---3-3-3-------|--------------------------|
 |
G|---------7-------------|--------7------7----------|---7-------9--------------|
D|---5---5-7-8--5--------|--5---5-7-8----5----------|---8------10--------------|
A|-----8-----------8--5--|----8-------------8--5----|---8------10--------------|
E|-----------------------|--------------------------|--------------------------|
 |
G|-----------------------|--------------------------|--------------------------|
D|----5---5------5-----5-|----5---5-----5-------5---|--------------------------|
A|-----------------------|--------------------------|---1----1-3--------3------|
E|--3---3---3-------3----|--3---3---3------3--------|--------------------------|


G|-----------------------|--------------------------|--------------------------|
D|-----------------------|--------------------------|--------------------------|
A|-----------------------|--------------------------|--------------------------|
E|--3---3---3-----3------|--3---3---3-----3---------|--3---3---3----3-3-3------|
 |
G|---------7----7--------|--------7------7----------|--------7----7------------|
D|---5---5-7-8--5--------|--5---5-7-8----5----------|--5---5-7-8--5------------|
A|-----8-----------8--5--|----8-------------8--5----|----8------------8--5-----|
E|-----------------------|--------------------------|--------------------------|
 |
G|-----------------------|--------------------------|--------------------------|
D|----5---5------5-----5-|----5---5-----5-------5---|----5---5------5-----5----|
A|-----------------------|--------------------------|--------------------------|
E|--3---3---3-------3----|--3---3---3------3--------|--3---3---3-------3-------|


G|-----------------------|--------------------------|--------------------------|
D|-----------------------|--------------------------|--------------------------|
A|-----------------------|--------------------------|--------------------------|
E|--3---3---3---3-3-3----|--3---3---3---3-3-3-------|--3---3---3----3-3-3------|
 |
G|---------7----7--------|--------7------7----------|--------7----7------------|
D|---5---5-7-8--5--------|--5---5-7-8----5----------|--5---5-7-8--5------------|
A|-----8-----------8--5--|----8-------------8--5----|----8------------8--5-----|
E|-----------------------|--------------------------|--------------------------|
 |
G|-----------------------|--------------------------|--------------------------|
D|----5---5------5-----5-|----5---5-----5-------5---|----5---5------5-----5----|
A|-----------------------|--------------------------|--------------------------|
E|--3---3---3-------3----|--3---3---3------3--------|--3---3---3-------3-------|


G|-----------------------|--------------------------|--------------------------|
D|-----------------------|--------------------------|--------------------------|
A|-----------------------|--------------------------|---1-------3--------------|
E|--3---3---3---3-3-3----|--3---3---3---3-3-3-------|--------------------------|
 |
G|---------7-------------|--------7------7----------|---7-------9--------------|
D|---5---5-7-8--5--------|--5---5-7-8----5----------|---8------10--------------|
A|-----8-----------8--5--|----8-------------8--5----|---8------10--------------|
E|-----------------------|--------------------------|--------------------------|
 |
G|-----------------------|--------------------------|--------------------------|
D|----5---5------5-----5-|----5---5-----5-------5---|--------------------------|
A|-----------------------|--------------------------|---1----1-3--------3------|
E|--3---3---3-------3----|--3---3---3------3--------|--------------------------|


G|-----------------------|--------------------------||-------------------------|
D|-----------------------|--------------------------||-------------------------|
A|-----------------------|--------------------------||-------------------------|
E|--3---3---3-----3------|--3---3---3------3--------||-3--3--3---3-3-3---------|
 |
G|---------7----7--------|--------7----7---7\5------||-------7----7------------|
D|---5---5-7-8--5--------|--5---5-7-8-----------8-8-||-5---5-7-8--5------------|
A|-----8-----------8--5--|----8--------8-----8----8-||---8------------8--5-----|
E|-----------------------|--------------------------||-------------------------|
 |
G|-----------------------|--------------------------||-------------------------|
D|----5---5------5-----5-|----5---5-----5-------5---||---5---5------5-----5----|
A|-----------------------|--------------------------||-------------------------|
E|--3---3---3-------3----|--3---3---3------3--------||-3---3---3-------3-------|


G|-----------------------|--------------------------|--------------------------|
D|-----------------------|--------------------------|--------------------------|
A|-----------------------|--------------------------|--------------------------|
E|--3---3---3-----3------|--3---3---3-----3---------|--3---3---3------3--------|
 |
G|---------7----7--------|--------7------7----------|--------7----7------------|
D|---5---5-7-8--5--------|--5---5-7-8----5----------|--5---5-7-8--5------------|
A|-----8-----------8--5--|----8-------------8--5----|----8------------8--5-----|
E|-----------------------|--------------------------|--------------------------|
 |
G|-----------------------|--------------------------|--------------------------|
D|----5---5------5-----5-|----5---5-----5-------5---|----5---5------5-----5----|
A|-----------------------|--------------------------|--------------------------|
E|--3---3---3-------3----|--3---3---3------3--------|--3---3---3-------3-------|


G|-----------------------|--------------------------|--------------------------|
D|-----------------------|--------------------------|--------------------------|
A|-----------------------|--------------------------|---1-------3--------------|
E|--3---3---3-----3------|--3---3---3-----3---------|--------------------------|
 |
G|---------7-------------|--------7------7----------|---7-------9--------------|
D|---5---5-7-8--5--------|--5---5-7-8----5----------|---8------10--------------|
A|-----8-----------8--5--|----8-------------8--5----|---8------10--------------|
E|-----------------------|--------------------------|--------------------------|
 |
G|-----------------------|--------------------------|--------------------------|
D|----5---5------5-----5-|----5---5-----5-------5---|-----------------0--2-----|
A|-----------------------|--------------------------|---1---1---3---3----------|
E|--3---3---3-------3----|--3---3---3------3--------|--------------------------|


G|-----------------------|--------------------------|--------------------------|
D|--1------3--3----------|--------------------------|--------------------------|
A|-----------------------|--------------------------|--------------------------|
E|--------------------1--|--3---3---3------3--------|--3---3---3-------3-------|
 |
G|--8------8-------------|--------7------7----------|--------7------7----------|
D|--8------7-------------|--5---8-7-8----5----------|--5---5-7-8----5----------|
A|--10-----8-------------|----8-------------8--5----|----8-------------8--5----|
E|-----------------------|--------------------------|--------------------------|
 |
G|-----------------------|--------------------------|--------------------------|
D|--2------3---3----3--3-|----5---5----5-------5----|----5---5-----5-------5---|
A|-----------------------|--------------------------|--------------------------|
E|-----------------------|--3---3---3-----3---------|--3---3---3------3--------|


G|-----------------|-------------------|--------------------|-----------------|
D|-----------------|-------------2-3-4-|-5------------------|-----------------|
A|-----------------|-------------------|--------------------|-----------------|
E|--3--------------|-------------------|--------------------|-------------1-2-|
 |
G|--7--------------|-------------------|-7------------------|-----------------|
D|--5--------------|-------------------|-5------------------|-----------------|
A|-----------------|-------------------|--------------------|-----------------|
E|-----------------|-------------------|--------------------|-----------------|
 |
G|-----------------|-------------------|--------------------|-----------------|
D|-----------------|-------------------|--------------------|-----------------|
A|-----------------|-------------------|--------------------|-----------------|
E|--3--------------|-------------------|-3------------------|-----------------|


Guitar & Electric Piano Solo
						Repeat this throughout solo
G|-----------------------|--------------------------|--------------------------|
D|-----------------------|--------------------------|--------------------------|
A|-----------------------|--------------------------|--------------------------|
E|--3---3---3---3-3-3----|--3---3---3---3-3-3-------|--3---3---3----3-3-3------|
 |
G|---------7----7--------|--------7------7----------|--------7----7------------|
D|---5---5-7-8--5--------|--5---5-7-8----5----------|--5---5-7-8--5------------|
A|-----8-----------8--5--|----8-------------8--5----|----8------------8--5-----|
E|-----------------------|--------------------------|--------------------------|
 |
G|-----------------------|--------------------------|--------------------------|
D|----5---5------5-----5-|----5---5-----5-------5---|----5---5------5-----5----|
A|-----------------------|--------------------------|--------------------------|
E|--3---3---3-------3----|--3---3---3------3--------|--3---3---3-------3-------|


G|-----------------------|-------------------------|---------------------------|
D|-----------------------|----------------------3--|--5------------------------|
A|-----------------------|-------------------5-----|---------------------------|
E|--3--------------------|-------------------------|---------------------------|
 |
G|--7--------------------|-------------------------|--7------------------------|
D|--5--------------------|-------------------------|--5------------------------|
A|-----------------------|-------------------------|---------------------------|
E|-----------------------|-------------------------|---------------------------|
 |
G|-----------------------|-------------------------|---------------------------|
D|-----------------------|-------------------------|---------------------------|
A|-----------------------|-------------------------|---------------------------|
E|--3--------------------|-------------------------|--3------------------------|


										D.S. al Coda
G|-----------------------|--------------------------|--------------------------|
D|-----------------3--5--|--------------------------|--------------------------|
A|-----------------------|--------------------------|--------------------------|
E|-----------------------|--3---3---3------3--------|--3---3---3-------3-------|
 |
G|-----------------------|--------7------7----------|--------7------7----------|
D|-----------------------|--5---8-7-8----5----------|--5---5-7-8----5----------|
A|-----------------------|----8-------------8--5----|----8-------------8--5----|
E|-----------------------|--------------------------|--------------------------|
 |
G|-----------------------|--------------------------|--------------------------|
D|-----------------------|----5---5----5-------5----|----5---5-----5-------5---|
A|-----------------------|--------------------------|--------------------------|
E|-----------------------|--3---3---3-----3---------|--3---3---3------3--------|


G|-----------------------|------------------------||--------------------------|
D|-----------------------|------------------------||o-------------------------|
A|-----------------------|------------------------||o-------------------------|
E|--3---3---3-----3------|--3---3---3-----3-------||--3---3---3------3--------|
 |
G|---------7----7--------|--------7------7--------||--------7----7------------|
D|---5---5-7-8--5--------|--5---5-7-8----5--------||o-5---5-7-8--5------------|
A|-----8-----------8--5--|----8-------------8--5--||o---8------------8--5-----|
E|-----------------------|------------------------||--------------------------|
 |
G|-----------------------|------------------------||--------------------------|
D|----5---5------5-----5-|----5---5-----5-------5-||o----5---5------5-----5---|
A|-----------------------|------------------------||o-------------------------|
E|--3---3---3-------3----|--3---3---3------3------||--3---3---3-------3-------|


G|-----------------------|------------------------|--------------------------||
D|-----------------------|------------------------|-------------------------o||
A|-----------------------|------------------------|-------------------------o||
E|--3---3---3-----3------|--3---3---3-----3-------|--3---3---3------3--------||
 |
G|---------7----7--------|--------7------7--------|--------7----7------------||
D|---5---5-7-8--5--------|--5---5-7-8----5--------|-5---5-7-8--5------------o||
A|-----8-----------8--5--|----8-------------8--5--|---8------------8--5-----o||
E|-----------------------|------------------------|--------------------------||
 |
G|-----------------------|------------------------|--------------------------||
D|----5---5------5-----5-|----5---5-----5-------5-|----5---5------5-----5---o||
A|-----------------------|------------------------|-------------------------o||
E|--3---3---3-------3----|--3---3---3------3------|--3---3---3-------3-------||


G|-----------------------|--------------------------|--------------------------|
D|-----------------------|--------------------------|--------------------------|
A|-----------------------|--------------------------|--------------------------|
E|--3---3---3-----3------|--3---3---3-----3---------|--3---3---3------3--------|
 |
G|---------7----7--------|--------7------7----------|--------7----7------------|
D|---5---5-7-8--5--------|--5---5-7-8----5----------|--5---5-7-8--5------------|
A|-----8-----------8--5--|----8-------------8--5----|----8------------8--5-----|
E|-----------------------|--------------------------|--------------------------|
 |
G|-----------------------|--------------------------|--------------------------|
D|----5---5------5-----5-|----5---5-----5-------5---|----5---5------5-----5----|
A|-----------------------|--------------------------|--------------------------|
E|--3---3---3-------3----|--3---3---3------3--------|--3---3---3-------3-------|


G|---------------------------------------------------------------------------|
D|---------------------------------------------------------------------------|
A|---------------------------------------------------------------------------|
E|--3------------------------------------------------------------------------|
 |
G|--7------------------------------------------------------------------------|
D|--5------------------------------------------------------------------------|
A|---------------------------------------------------------------------------|
E|---------------------------------------------------------------------------|
 |
G|---------------------------------------------------------------------------|
D|---------------------------------------------------------------------------|
A|---------------------------------------------------------------------------|
E|--3------------------------------------------------------------------------|


| /  slide up
| \  slide down
| h  hammer-on
| p  pull-off
| ~  vibrato
| +  harmonic
| x  Mute note
===============================================================================
comments
print report bad tab
I want to post or [tab]
guest
You may want to rate the tab now too:
select rating
Please do not post tabs as comments. Select "correction" instead!