Oops, an error
Loading. Please wait.

Travelling Riverside Blues Tab

ver4
ver4

Whole song

More versions @911Tabs.com
3,096 views 31 this week
no commentswrite comment
1 2 3 4 5
accurate
x 5
add to favorites launch autoscroll
font size
0
reset
Autoscroll
+/-
esc
set tempo
stop
Contributor
WARNING: You are trying to view
                                    content from Ultimate-Guitar.com
                                    in an unauthorized application,
                                    which is prohibited.

                                    Please use an official Ultimate
                                    Guitar Tabs application for iPhone,
                                    iPad or Android to access legitimate
                                    chords, guitar, bass, and drum tabs
                                    from Ultimate-Guitar.com database.

                                    Type "ultimate guitar tabs" in Apple
                                    App Store's or Android Market's
                                    search to find the application.
Travelling Riverside Blues - Led Zeppelin

EADGBD (low to high) Tuning
Use slide

D|-/12-12-12-12-12\-0-0-3-5-3-0-|-----0-----0-----0-----0-------|
B|-/12-12-12-12-12\-0-0-3-5-3-0-|---0-----0-----0-----0---------|
G|-/12-12-12-12-12\-0-0-3-5-3-0-|-------------------------------|
D|-/12-12-12-12-12\-0---3-5-3-0-|-3-----2-----0-----------------|
A|------------------------------|-------------------3-----1-2---|
E|------------------------------|-----------------------------3-|

D|-/12-12-12-12-12\-0-0-3-5-3-0-|-----0-----0-----0-----0-------|
B|-/12-12-12-12-12\-0-0-3-5-3-0-|---0-----0-----0-----0---------|
G|-/12-12-12-12-12\-0-0-3-5-3-0-|-------------------------------|
D|-/12-12-12-12-12\-0---3-5-3-0-|-3-----2-----0---------------0-|
A|------------------------------|-------------------3-----1-2---|
E|------------------------------|-------------------------------|

D|-/12-12-12-12-12\-0-0-3-5-3-0-|-----0-----0-----0-----0-------|
B|-/12-12-12-12-12\-0-0-3-5-3-0-|---0-----0-----0-----0---------|
G|-/12-12-12-12-12\-0-0-3-5-3-0-|-------------------------------|
D|-/12-12-12-12-12\-0---3-5-3-0-|-3-----2-----0---------------0-|
A|------------------------------|-------------------3-----1-2---|
E|------------------------------|-------------------------------|

D|-/12-12-12-12-12\-0-0-3-5-3-0-|-----0-----0-----0-----0-------|
B|-/12-12-12-12-12\-0-0-3-5-3-0-|---0-----0-----0-----0---------|
G|-/12-12-12-12-12\-0-0-3-5-3-0-|-------------------------------|
D|-/12-12-12-12-12\-0---3-5-3-0-|-3-----2-----0---------------0-|
A|------------------------------|-------------------3-----1-2---|
E|------------------------------|-------------------------------|


D| -------------3--|-------------3--|-------------3--|-------------3--|
B| -------------3--|-------------3--|-------------3--|-------------3--|
G|o0---0---0----0--|0---0---0----0--|0---0---0----0--|0---0---0----0--|
D|o0-002-223-3320--|0-002-223-3320--|0-002-223-3320--|0-002-223-3320--|
A| ----------------|----------------|----------------|----------------|
E| ----------------|----------------|----------------|----------------|
  Now sweet Mama, let me.....
  See my baby, tell her.....

D|--------5---55--|5-------5---55--|----------------|-------------3--|
B|--------5---55--|5-------5---55--|-------------3--|-------------3--|
G|----5--55---55--|555-5---5---55--|0---0---0----0--|0---0---0----0--|
D|----------------|----------------|0-002-223-3320--|0-002-223-3320--|
A|57--------------|----------------|----------------|----------------|
E|----------------|----------------|----------------|----------------|

D|--0-0-0-0-0-0---|--5---5-5-0-3-3-|0-0-------0--0--|--0---0-----0---|
B|--1-0-1-0-0-1---|--5---5-5-0-3-3-|0-0--3--3-------|3---------------|
G|--2-2-2-2-2-2---|--5---5-5-0-3-3-|0-0-------------|----------------|
D|--0-0-0---------|----------------|--0-3---2-2-1-1-|0-----0-----0---|
A|----------------|----------------|----------------|----------------|
E|----------------|----------------|----------------|----35----------|

D|-/12-12-12-12-12\-0-0-3-5-3-0-|-----0-----0-----0-----0-------|
B|-/12-12-12-12-12\-0-0-3-5-3-0-|---0-----0-----0-----0---------|
G|-/12-12-12-12-12\-0-0-3-5-3-0-|-------------------------------|
D|-/12-12-12-12-12\-0---3-5-3-0-|-3-----2-----0---------------0-|
A|------------------------------|-------------------3-----1-2---|
E|------------------------------|-------------------------------|

D|-/12-12-12-12-12\-0-0-3-5-3-0-|-----0-----0-----0-----0-------|
B|-/12-12-12-12-12\-0-0-3-5-3-0-|---0-----0-----0-----0---------|
G|-/12-12-12-12-12\-0-0-3-5-3-0-|-------------------------------|
D|-/12-12-12-12-12\-0---3-5-3-0-|-3-----2-----0---------------0-|
A|------------------------------|-------------------3-----1-2---|
E|------------------------------|-------------------------------|

D|-/12-12-12-12-12\-0-0-3-5-3-0-|-----0-----0-----0-----0-------|
B|-/12-12-12-12-12\-0-0-3-5-3-0-|---0-----0-----0-----0---------|
G|-/12-12-12-12-12\-0-0-3-5-3-0-|-------------------------------|
D|-/12-12-12-12-12\-0---3-5-3-0-|-3-----2-----0---------------0-|
A|------------------------------|-------------------3-----1-2---|
E|------------------------------|-------------------------------|
                                 ________________________________
                                |1.2.                            |
D|-/12-12-12-12-12\-0-0-3-5-3-0-|-----0-----0-----0-----0------- |
B|-/12-12-12-12-12\-0-0-3-5-3-0-|---0-----0-----0-----0--------- |
G|-/12-12-12-12-12\-0-0-3-5-3-0-|-------------------------------o|
D|-/12-12-12-12-12\-0---3-5-3-0-|-3-----2-----0---------------0-o|
A|------------------------------|-------------------3-----1-2--- |
E|------------------------------|------------------------------- |

D|-------------3--|-------------3--|-------------3--|-------------3--|
B|-------------3--|-------------3--|-------------3--|-------------3--|
G|0---0---0----0--|0---0---0----0--|0---0---0----0--|0---0---0----0--|
D|0-002-223-3320--|0-002-223-3320--|0-002-223-3320--|0-002-223-3320--|
A|----------------|----------------|----------------|----------------|
E|----------------|----------------|----------------|----------------|
  I'm goin' to Rosedale.....

D|--------5---55--|5-------5---55--|----------------|-------------3--|
B|--------5---55--|5-------5---55--|-------------3--|-------------3--|
G|----5--55---55--|555-5---5---55--|0---0---0----0--|0---0---0----0--|
D|----------------|----------------|0-002-223-3320--|0-002-223-3320--|
A|57--------------|----------------|----------------|----------------|
E|----------------|----------------|----------------|----------------|

E|--0-0-0-0-0-0---|--5---5-5-0-3-3-|0-0-------0--0--|--0---0-----0---|
B|--1-0-1-0-0-1---|--5---5-5-0-3-3-|0-0--3--3-------|3---------------|
G|--2-2-2-2-2-2---|--5---5-5-0-3-3-|0-0-------------|----------------|
D|--0-0-0---------|----------------|--0-3---2-2-1-1-|0-----0-----0---|
A|----------------|----------------|----------------|----------------|
E|----------------|----------------|----------------|----35----------|

D|-/12-12-12-12-12\-0-0-3-5-3-0-|-----0-----0-----0-----0-------|
B|-/12-12-12-12-12\-0-0-3-5-3-0-|---0-----0-----0-----0---------|
G|-/12-12-12-12-12\-0-0-3-5-3-0-|-------------------------------|
D|-/12-12-12-12-12\-0---3-5-3-0-|-3-----2-----0---------------0-|
A|------------------------------|-------------------3-----1-2---|
E|------------------------------|-------------------------------|

D|-/12-12-12-12-12\-0-0-3-5-3-0-|-----0-----0-----0-----0-------|
B|-/12-12-12-12-12\-0-0-3-5-3-0-|---0-----0-----0-----0---------|
G|-/12-12-12-12-12\-0-0-3-5-3-0-|-------------------------------|
D|-/12-12-12-12-12\-0---3-5-3-0-|-3-----2-----0---------------0-|
A|------------------------------|-------------------3-----1-2---|
E|------------------------------|-------------------------------|

D|-/12-12-12-12-12\-0-0-3-5-3-0-|-----0-----0-----0-----0-------|
B|-/12-12-12-12-12\-0-0-3-5-3-0-|---0-----0-----0-----0---------|
G|-/12-12-12-12-12\-0-0-3-5-3-0-|-------------------------------|
D|-/12-12-12-12-12\-0---3-5-3-0-|-3-----2-----0---------------0-|
A|------------------------------|-------------------3-----1-2---|
E|------------------------------|-------------------------------|

D|-/12-12-12-12-12\-0-0-3-5-3-0-|-----0-----0-----0-----0---0-0-|
B|-/12-12-12-12-12\-0-0-3-5-3-0-|---0-----0-----0-----0---------|
G|-/12-12-12-12-12\-0-0-3-5-3-0-|-------------------------------|
D|-/12-12-12-12-12\-0---3-5-3-0-|-3-----2-----0-----------------|
A|------------------------------|-------------------3-----2-----|
E|------------------------------|-------------------------------|

  Guitar Solo
D|--------------------------------|----------------------12--------|
B|--------------------------------|--------------13--14------------|
G|151412--12----16--1412--12----14|151412--121416----------12----16|
D|------14--------------14--------|------14------------------------|
A|--------------------------------|--------------------------------|
E|--------------------------------|--------------------------------|

E|--------------------------------|------------------12------------|
B|--------------------------------|--------------------151715------|
G|--1412--12----15--1412--12----16|--1412--1214--1416--------12----|
D|------14--------------14--------|------14------------------------|
A|--------------------------------|--------------------------------|
E|--------------------------------|--------------------------------|

D|--------------------------------|------------5-3-----------------|
B|--------------------------------|----------3----363-3------------|
G|15------------------------------|--------7---------6--6-5-3---3--|
D|--------------------------------|---------------------------5----|
A|--------------------------------|--------------------------------|
E|--------------------------------|--------------------------------|

D|----------5---------------------|--------------------------------|
B|--------------------------------|------3-------------------8-1010|
G|5---7-------5-7---------753---3-|4-------------------7---9-------|
D|----------------------------5---|--------------------------------|
A|--------------------------------|--------------------------------|
E|--------------------------------|--------------------------------|

D|--------------------------------|--12------------------------------|
B|128-10------------------------17|----1413111311--------------------|
G|------9-----7---7---------12----|--------------1412--1412--12--1214|
D|--------------10--------14------|------------------14----14--14----|
A|--------------------------------|----------------------------------|
E|--------------------------------|----------------------------------|
                                                       \--3-/
D|--------------------------------|------------------------------------------------|
B|------3-6-3---363---------------|------------------------------------------------|
G|----7------7-----553535-3-------|------------------------------3-5-3-5-3-3-3---5-|
D|--------------------------53----|----------------3-5-3---3-4-5-------------------|
A|----------------------------535-|3-1-------1-5---------5-------------------------|
E|--------------------------------|----3-3-----------------------------------------|
          \--3-/                   \--3-/\--3-/\--3-/\--3-/\--3-/\--3-/\--3-/\--3-/

D|-/12-12-12-12-12\-0-0-3-5-3-0-|-----0-----0-----0-----0-------|
B|-/12-12-12-12-12\-0-0-3-5-3-0-|---0-----0-----0-----0---------|
G|-/12-12-12-12-12\-0-0-3-5-3-0-|-------------------------------|
D|-/12-12-12-12-12\-0---3-5-3-0-|-3-----2-----0---------------0-|
A|------------------------------|-------------------3-----1-2---|
E|------------------------------|-------------------------------|

D|-/12-12-12-12-12\-0-0-3-5-3-0-|-----0-----0-----0-----0-------|
B|-/12-12-12-12-12\-0-0-3-5-3-0-|---0-----0-----0-----0---------|
G|-/12-12-12-12-12\-0-0-3-5-3-0-|-------------------------------|
D|-/12-12-12-12-12\-0---3-5-3-0-|-3-----2-----0---------------0-|
A|------------------------------|-------------------3-----1-2---|
E|------------------------------|-------------------------------|

D|-/12-12-12-12-12\-0-0-3-5-3-0-|-----0-----0-----0-----0-------|
B|-/12-12-12-12-12\-0-0-3-5-3-0-|---0-----0-----0-----0---------|
G|-/12-12-12-12-12\-0-0-3-5-3-0-|-------------------------------|
D|-/12-12-12-12-12\-0---3-5-3-0-|-3-----2-----0---------------0-|
A|------------------------------|-------------------3-----1-2---|
E|------------------------------|-------------------------------|

D|-/12-12-12-12-12\-0-0-3-5-3-0-|-----0-----0-----0-----0-------|
B|-/12-12-12-12-12\-0-0-3-5-3-0-|---0-----0-----0-----0---------|
G|-/12-12-12-12-12\-0-0-3-5-3-0-|-------------------------------|
D|-/12-12-12-12-12\-0---3-5-3-0-|-3-----2-----0---------------0-|
A|------------------------------|-------------------3-----1-2---|
E|------------------------------|-------------------------------|

D|-------------3--|-------------3--|-------------3--|-------------3--|
B|-------------3--|-------------3--|-------------3--|-------------3--|
G|0---0---0----0--|0---0---0----0--|0---0---0----0--|0---0---0----0--|
D|0-002-223-3320--|0-002-223-3320--|0-002-223-3320--|0-002-223-3320--|
A|----------------|----------------|----------------|----------------|
E|----------------|----------------|----------------|----------------|
  Squeeze my lemon till the juice.....

D|--------5---55--|5-------5---55--|----------------|-------------3--|
B|--------5---55--|5-------5---55--|-------------3--|-------------3--|
G|----5--55---55--|555-5---5---55--|0---0---0----0--|0---0---0----0--|
D|----------------|----------------|0-002-223-3320--|0-002-223-3320--|
A|57--------------|----------------|----------------|----------------|
E|----------------|----------------|----------------|----------------|

D|--0-0-0-0-0-0---|--5---5-5-0-3-3-|0-0-------0--0--|--0---0-----0---|
B|--1-0-1-0-0-1---|--5---5-5-0-3-3-|0-0--3--3-------|3---------------|
G|--2-2-2-2-2-2---|--5---5-5-0-3-3-|0-0-------------|----------------|
D|--0-0-0---------|----------------|--0-3---2-2-1-1-|0-----0-----0---|
A|----------------|----------------|----------------|----------------|
E|----------------|----------------|----------------|----35----------|

D| -/12-12-12-12-12\-0-0-3-5-3-0-|-----0-----0-----0-----0-------|
B| -/12-12-12-12-12\-0-0-3-5-3-0-|---0-----0-----0-----0---------|
G|o-/12-12-12-12-12\-0-0-3-5-3-0-|-------------------------------|
D|o-/12-12-12-12-12\-0---3-5-3-0-|-3-----2-----0---------------0-|
A| ------------------------------|-------------------3-----1-2---|
E| ------------------------------|-------------------------------|

D|-/12-12-12-12-12\-0-0-3-5-3-0-|-----0-----0-----0-----0------- |
B|-/12-12-12-12-12\-0-0-3-5-3-0-|---0-----0-----0-----0--------- |
G|-/12-12-12-12-12\-0-0-3-5-3-0-|-------------------------------o| repeat ad lib
D|-/12-12-12-12-12\-0---3-5-3-0-|-3-----2-----0---------------0-o| to fade
A|------------------------------|-------------------3-----1-2--- |
E|------------------------------|------------------------------- |


1000 views - 15 August 2013
2000 views - 16 February 2014
comments
print report bad tab
I want to post or [tab]
guest
You may want to rate the tab now too:
select rating
Please do not post tabs as comments. Select "correction" instead!