Oops, an error
Loading. Please wait.

Valediction Tab

231 views 9 this week
no commentswrite comment
1 2 3 4 5
excellent!
x 1
Autoscroll
+/-
esc
set tempo
stop
Contributor
Hey! There's an official Ultimate Guitar app which is ideal
for learning songs when you're away from computer. Get the app
WARNING: You are trying to view
                                    content from Ultimate-Guitar.com
                                    in an unauthorized application,
                                    which is prohibited.

                                    Please use an official Ultimate
                                    Guitar Tabs application for iPhone,
                                    iPad or Android to access legitimate
                                    chords, guitar, bass, and drum tabs
                                    from Ultimate-Guitar.com database.

                                    Type "ultimate guitar tabs" in Apple
                                    App Store's or Android Market's
                                    search to find the application.
LEGEND
VALEDICTION

A#-F-A#-D#-G-C

TABBED BY andherembrace



-----------------------------------------------------
FILTER
L
-------------------------------------------------------------|
-------------------------------------------------------------|
----------------10------10--10----5------5---5----3----3--3--|
-----------------8-------8---8----3------3---3----1----1--1--|
-0------0---0----8-------8---8----3------3---3----1----1--1--|
-0------0---0----8-------8---8----3------3---3----1----1--1--|
R                                                   
---------------------------------------------------------------------|
---------------------------------------------------------------------|
---------------------------------------------------------------------|
---------------------------------------------------------------------|
-0000-000000--0000--000-000000-000--0000-000000--0000--000-000000-000|
-0000-000000--0000--000-000000-000--0000-000000--0000--000-000000-000|
 **** ******  ****  *** ****** ***  **** ******  ****  *** ****** ***



L
-------------------------------------------------------------|
-------------------------------------------------------------|
----------------10------10--10----5------5---5----3----------|
-----------------8-------8---8----3------3---3----1----------|
-0------0---0----8-------8---8----3------3---3----1----------|
-0------0---0----8-------8---8----3------3---3----1----------|
R                                                   
----------------------------------------------------------------|
----------------------------------------------------------------|
----------------------------------------------------------------|
----------------------------------------------------------------|
-0000-000000--0000--000-000000-000--0000-000000--0000--000-0000-|
-0000-000000--0000--000-000000-000--0000-000000--0000--000-0000-|
 **** ******  ****  *** ****** ***  **** ******  ****  *** ****
-------------------------------------------------------------------





0:16
--------------------------------------------------------------------|
--------------------------------------------------------------------|
--------------------------------------------------------------------|
--------------------------------------------------------------------|
-0000-000000--0000--000-000000-000--0000-000000--0000--000-00000000-|
-0000-000000--0000--000-000000-000--0000-000000--0000--000-00000000-|
 **** ******  ****  *** ****** ***  **** ******  ****  *** ********
---------------------------------------------------------------------|
---------------------------------------------------------------------|
---------------------------------------------------------------------|
---------------------------------------------------------------------|
-0000-000000--0000--000-000000-000--0000-000000--0000--000-000000-00-|
-0000-000000--0000--000-000000-000--0000-000000--0000--000-000000-00-|
 **** ******  ****  *** ****** ***  **** ******  ****  *** ****** **


0:32
------------------------------------------------------------|
------------------------------------------------------------|
------------------------------------------------------------|
------------------------------------------------------------|
-0-----------------------------0----------------------------|
-0-----------------------------0----------------------------|


0:40
L
-------------------------------------------------------------------|
-------------------------------------------------------------------|
-------------------------------------------------------------------|
-------------------------------------------------------------------|
-------------------------------------------------------------------|
/12-12-12-12-0-0-0-12-12-0--12-12-12-12-0-0-0--0-0-0-12-0-0-0-0-13-|

R
---------------------------------------------------------------|
---------------------------------------------------------------|
---------------------------------------------------------------|
---------------------------------------------------------------|
-0-------------------------------------------------------------|
-0-------------------------------------------------------------|


L
-------------------------------------------------------------------|
-------------------------------------------------------------------|
-------------------------------------------------------------------|
-------------------------------------------------------------------|
-------------------------------------------------------------------|
/12-12-12-12-0-0-0-12-12-0--12-12-12-12-0-0-0--0-0-0-12-0-0-0-0-13-|

R
---------------------------------------------------------------|
---------------------------------------------------------------|
---------------------------------------------------------------|
---------------------------------------------------------------|
-0-------------------------------------------------------------|
-0-------------------------------------------------------------|


B
-------------------------------------------------------------------|
-------------------------------------------------------------------|
-------------------------------------------------------------------|
-------------------------------------------------------------------|
-------------------------------------------------------------------|
/12-12-12-12-0-0-0-12-12-0--12-12-12-12-0-0-0--0-0-0-12-0-0-0-0-13-|

-----------------------------------------------------------------------|
-----------------------------------------------------------------------|
-----------------------------------------------------------------------|
-----------------------------------------------------------------------|
-----------------------------------------------------------------------|
/12-12-12-12-0-0-0-12-12-0--12-12-12-12-0-0-0--0-0-0-12-0-131313131313-|
                                                           * * * * * * 
 
0:56
--------------------------------------------------------------------|
--------------------------------------------------------------------|
----------------10------10--10----5------5---5----------------------|
-----------------8-------8---8----3------3---3----------------------|
-0------0---0----8-------8---8----3------3---3----1-000-1-000-11----|
-0------0---0----8-------8---8----3------3---3----1-000-1-000-11----|
                                                    ***   ***

-------------------------------------------------------------------|
-------------------------------------------------------------------|
----------------10------10--10----14-----14--14--------------------|
-----------------8-------8---8----12-----12--12--------------------|
-0------0---0----8-------8---8----12-----12--12----3-000-3-000-33-0|
-0------0---0----8-------8---8----12-----12--12----3-000-3-000-33-0|
                                                     ***   ***

1:16
             LLLL     LLLLLL                 LLLL RRR
---------------------------------------------------------------|
---------------------------------------------------------------|
---------------------------------------------------------------|
---------------------------------------------------------------|
-0000-000000-0000-000-000000-000-0000-000000-0000-000--0-------|
-0000-000000-0000-000-000000-000-0000-000000-0000-000--0-/\----|
 **** ****** **** *** ****** *** **** ****** **** ***

------------------------------------------------------------------------|
------------------------------------------------------------------------|
------------------------------------------------------------------------|
------------------------------------------------------------------------|
-0000-000000-0000-000-000000-000--0000-000000-0000-000------------------|
-0000-000000-0000-000-000000-000--0000-000000-0000-000-12-0-131313131313|
 **** ****** **** *** ****** ***  **** ****** **** ***       * * * * * *
  

1
--------------------------------------------------------------------|
--------------------------------------------------------------------|
----------------10------10--10----5------5---5----------------------|
-----------------8-------8---8----3------3---3----------------------|
-0------0---0----8-------8---8----3------3---3----1-000-1-000-11----|
-0------0---0----8-------8---8----3------3---3----1-000-1-000-11----|
                                                    ***   ***
2
--------------------------------------------------------------------|
--------------------------------------------------------------------|
-7----------------10\7-5----------5--5/7--10------10-10\8--8--------|
--------------------------------------------------------------------|
--------------------------------------------------------------------|
--------------------------------------------------------------------|


1
-------------------------------------------------------------------|
-------------------------------------------------------------------|
----------------10------10--10----14-----14--14--------------------|
-----------------8-------8---8----12-----12--12--------------------|
-0------0---0----8-------8---8----12-----12--12----3-000-3-000-3---|
-0------0---0----8-------8---8----12-----12--12----3-000-3-000-3---|
                                                     ***   ***
2
-------------------------PH----------------------------------------|
-------------------------6-----------------------------------13-15-|
-7----------------10\7-5----------5--5/7--10-----10-10/12-14-------|
-------------------------------------------------------------------|
-------------------------------------------------------------------|
-------------------------------------------------------------------|




1:48
------------------------------------------------------------------------|
------------------------------------------------------------------------|
------------------------------------------------------------------------|
------------H----------------H-------------H----------------------------|
------------5----------------5-------------5----------------------1-4-3-|
-3-0-0----0----00-0--3-0-0--0--0-1--3-0-0----0---00-0--3-0-0---00-1-4-3-|

------------------------------------------------------------------------|
------------------------------------------------------------------------|
------------------------------------------------------------------------|
------------H----------------H-------------H----------------------------|
------------5----------------5-------------5----------------------1-4-3-|
-3-0-0----0---00-0--3-0-0---0---0-1--3-0-0---0---00-0--3-0-0----0-1-4-3-|

------------------------------------------------------------------------|
------------------------------------------------------------------------|
------------------------------------------------------------------------|
------------H----------------H-------------H----------------------------|
------------5----------------5-------------5----------------------1-4-3-|
-3-0-0----0---00-0--3-0-0--0---0-1--3-0-0----0---00-0--3-0-0---00-1-4-3-|

-------------------------------------------------------------------------|
-------------------------------------------------------------------------|
-------------------------------------------------------------------------|
---------H---------------H-------------H---------------------------------|
---------5---------------5-------------5---------------------1-4-3-0-1-3-|
3-0-0--0---00-0--3-0-0--0--0-1--3-0-0----0---00-0--3-0-0--00-1-4-3-0-1-3-|


---------------------------------------------------------------------------|
---------------------------------------------------------------------------|
---------------------------------------------------------------------------|
---------------------------------------------------------------------------|
000-00-0--0--0-00---000-00-0--0--0-000---000-00-0--0--0-00---000-00-0-0-1-3|
000-00-0--0--0-00---000-00-0--0--0-000---000-00-0--0--0-00---000-00-0-0-1-3|
*** ** *  *  * **   *** ** *  *  * ***   *** ** *  *  * **   *** ** * 

-------------------------------------------------------------|
-------------------------------------------------------------|
-------------------------------------------------------------|
-------------------------------------------------------------|
-000-00-0-0---000-00-0-0-0-000---000-00-0-0-0-00---000-00-0--|
-000-00-0-0---000-00-0-0-0-000---000-00-0-0-0-00---000-00-0--|
 *** ** * *   *** ** * * * ***   *** ** * * * **   *** ** *



-----------------------------|
-----------------------------|
-----------------------------|
-----------------------------|
-0-1-3-1-4-3--0-1-3-1-4-3----|
-0-1-3-1-4-3--0-1-3-1-4-3----|
 * * * * * *  * * * * * * 


1
--------------------------------------------------------------------|
--------------------------------------------------------------------|
----------------10------10--10----5------5---5----------------------|
-----------------8-------8---8----3------3---3----------------------|
-0------0---0----8-------8---8----3------3---3----1-000-1-000-11----|
-0------0---0----8-------8---8----3------3---3----1-000-1-000-11----|
                                                    ***   ***
2
--------------------------------------------------------------------|
--------------------------------------------------------------------|
-7----------------10\7-5----------5--5/7--10------10-10\8--8--------|
--------------------------------------------------------------------|
--------------------------------------------------------------------|
--------------------------------------------------------------------|


1
-------------------------------------------------------------------|
-------------------------------------------------------------------|
----------------10------10--10----14-----14--14--------------------|
-----------------8-------8---8----12-----12--12--------------------|
-0------0---0----8-------8---8----12-----12--12----3-000-3-000-3---|
-0------0---0----8-------8---8----12-----12--12----3-000-3-000-3---|
                                                     ***   ***
2
-------------------------PH----------------------------------------|
-------------------------6-----------------------------------13-15-|
-7----------------10\7-5----------5--5/7--10-----10-10/12-14-------|
-------------------------------------------------------------------|
-------------------------------------------------------------------|
-------------------------------------------------------------------|

------------------------------------------------------------------------|
------------------------------------------------------------------------|
------------------------------------------------------------------------|
------------------------------------------------------------------------|
-0000-000000-0000-000-000000-000--0000-000000-0000-000------------------|
-0000-000000-0000-000-000000-000--0000-000000-0000-000-12-0-131313131313|
 **** ****** **** *** ****** ***  **** ****** **** ***       * * * * * *
  
-------------------------------------------------------------------|
-------------------------------------------------------------------|
-------------------------------------------------------------------|
-------------------------------------------------------------------|
-------------------------------------------------------------------|
/12-12-12-12-0-0-0-12-12-0--12-12-12-12-0-0-0--0-0-0-12-0-0-0-0-13-|


----------------------|
----------------------|
----------------------|
----------------------|
-0000-----------------|
-0000-----------------|
 ****
comments
We did not receive enough feedback on this tab! Please rate:
print report bad tab
1 2 3 4 5
I want to post or [tab]
guest
You may want to rate the tab now too:
select rating
Please do not post tabs as comments. Select "correction" instead!