Oops, an error
Loading. Please wait.

Stairway To Heaven Tab

140,809 views 213 this week
3 commentsread comments
1 2 3 4 5
excellent!
x 9
Autoscroll
+/-
esc
set tempo
stop
Contributor
Hey! There's an official Ultimate Guitar app which is ideal
for learning songs when you're away from computer. Get the app
WARNING: You are trying to view
                                    content from Ultimate-Guitar.com
                                    in an unauthorized application,
                                    which is prohibited.

                                    Please use an official Ultimate
                                    Guitar Tabs application for iPhone,
                                    iPad or Android to access legitimate
                                    chords, guitar, bass, and drum tabs
                                    from Ultimate-Guitar.com database.

                                    Type "ultimate guitar tabs" in Apple
                                    App Store's or Android Market's
                                    search to find the application.
E-------5-7-----7-|-8-----8-2-----2-|-0---------0-----|-----------------|
B-----5-----5-----|---5-------3-----|---1---1-----1---|-0-1-1-----------|
G---5---------5---|-----5-------2---|-----2---------2-|-0-2-2-----------|
D-7-------6-------|-5-------4-------|-3---------------|-----------------|
A-----------------|-----------------|-----------------|-2-0-0---0--/8-7-|
E-----------------|-----------------|-----------------|-----------------|
 
E---------7-----7-|-8-----8-2-----2-|-0---------0-----|-----------------|
B-------5---5-----|---5-------3-----|---1---1-----1---|-0-1-1-----------|
G-----5-------5---|-----5-------2---|-----2---------2-|-0-2-2-----------|
D---7-----6-------|-5-------4-------|-3---------------|-----------------|
A-0---------------|-----------------|-----------------|-2-0-0-------0-2-|
E-----------------|-----------------|-----------------|-----------------|
 
E-------0-2-----2-|-0-----0----------|---------3-----3-|
B-----------3-----|---1-----0h1------|-1-----1---0-----|
G-----0-------2---|-----2-------2----|---0---------0---|
D---2-----0-------|-3----------------|-----2-----------|
A-3---------------|---------0----0-2-|-3---------------|
E-----------------|------------------|---------3-------|
                                                               Intro end.
E---------2-----2-|-0-----0----------|---------------2-|-0-0-0-----------|
B-------1---3-----|---1-----0-1------|-------1-----3---|-1-1-1-----------|
G-----0-------2---|-----2-------2----|-----0-----2-----|-2-2-2-----------|
D---2-----0-------|-3----------------|---2-----0-------|-3-3-3-----------|
A-3---------------|---------0----0-2-|-3---------------|-----------------|
E-----------------|------------------|-----------------|-----------------|
                                                               
 
E-------5-7-----7-|-8-----8-2-----2-|-0---------0-----|-----------------|
B-----5-----5-----|---5-------3-----|---1---1-----1---|-0-1-1-----------|
G---5---------5---|-----5-------2---|-----2---------2-|-0-2-2-----------|
D-7-------6-------|-5-------4-------|-3---------------|-----------------|
A-----------------|-----------------|-----------------|-2-0-0-----------|
E-----------------|-----------------|-----------------|-----------------|
 
E-------5-7-----7-|-8-----8-2-----2-|-0---------0-----|-----------------|
B-----5-----5-----|---5-------3-----|---1---1-----1---|-0-1-1-----------|
G---5---------5---|-----5-------2---|-----2---------2-|-0-2-2-----------|
D-7-------6-------|-5-------4-------|-3---------------|-----------------|
A-----------------|-----------------|-----------------|-2-0-0-------0-2-|
E-----------------|-----------------|-----------------|-----------------|
  
E---------2-----2-|-0-----0---------------|---------3-----3-|-3^2-2-2-------|
B-------1---3-----|---1----1--0-1---------|-1---1-1---0-----|-3---3-3-------|
G-----0-------2---|-----2---------2-------|---0-0-------0---|-2-----2-------|
D---2-----0-------|-3---------------------|-----2-----------|-0-----0-------|
A-3---------------|-----------0------0-2--|-3---------------|-----------0-2-|
E-----------------|-----------------------|---------3-------|---------------|
 
 
E-------0-2-----2-|-0-----------------|---------2-----2-|-0-0-0-----------|
B-----------3-----|---1--1--0 1-------|-1-----1---3-----|-1-1-1-----------|
G-----0-------2---|-----2-------2-----|---0---------2---|-2-2-2-----------|
D---2-----0-------|-3-----------------|-----2---0-------|-3-3-3-----------|
A-3---------------|---------------0-2-|-3---------------|-----------------|
E-----------------|-------------------|-----------------|-----------------|
 a
 
E-------5-7-----7-|-8-----8-2-----2-|-0---0-----0-----|-----------------|
B-----5-----5-----|---5-------3-----|---1---1-----1---|-0-1-1-----------|
G---5---------5---|-----5-------2---|---------------2-|-0-2-2-----------|
D-7-------6-------|-5-------4-------|-3---------------|-----------------|
A-----------------|-----------------|-----------------|-2-0-0---0--/8-7-|
E-----------------|-----------------|-----------------|-----------------|
 
E--------5-7---7---|----8-------2------|----0-------0----|-----------------|
B-----------5-5-5--|---5-5-----3-3-----|---1--1----1-1---|-0-1-1-------3---|
G------5-----5---5-|--5---5---2---2--2-|--2----2--2---2--|-0-2-2-------0---|
D----7-----6-------|-5-----5-4-----4---|-3-------3-----3-|-------------0---|
A-0-0--------------|-------------------|-----------------|-2-0-0-------2---|
E------------------|-------------------|-----------------|-----------------|
 
|-3---3-3-3--3--0-0-|-2-------2-------|-3--3-3-3--3--0-0---7-|--5---3---5----|
|-1---1-1-1--1--1-3-|-3--3--3---3-0-0-|-1--1-1-1--1--1-1---8-|--7---5---7----|
|-2---2-2-2--2--2-2-|-2-----------0-0-|-2--2-2-2--2--2-2---9-|--7---5---7----|
|-2---2-2-2--2--2---|---0-------------|-2--2-2-2--2--2-2---0-|-------------0-|
|-------------------|-----------------|----------------------|-------------0-|
|-------------------|-----------------|----------------------|---------------|
                     
|-3---3-3-3--3--0-0-|-2-------2-------|-3--3-3-3--3--0-0---7-|--5---3---5----|
|-1---1-1-1--1--1-3-|-3--3--3---3-0-0-|-1--1-1-1--1--1-1---8-|--7---5---7----|
|-2---2-2-2--2--2-2-|-2-----------0-0-|-2--2-2-2--2--2-2---9-|--7---5---7----|
|-2---2-2-2--2--2---|---0-------------|-2--2-2-2--2--2-2---0-|-------------0-|
|-------------------|-----------------|----------------------|-------------0-|
|-------------------|-----------------|----------------------|---------------|
  
------------------|------------------------|-----------------0--|--0--------|
---------1------3-|-0h1----------1---------|-------1---------0--|--1--------|
-------0------0---|-----2-------2----------|-----0--------0--2--|--2--------|
-----2------0-----|---------2--------------|---2--------0----3--|--2--------|
-0h3------2-------|-------0----------0--2--|-3--------2------3--|--0---0-2--|
------------------|------------------------|-----------------1--|-----------|

----------------|--------------------|----------------0-|--0------|---------|
-------1------3-|-0h1---------1------|-------1--------1-|--1------|----1---3|
-----0------0---|-----2-----2--------|-----0-------0--2-|--2------|---0---0-|
---2------0-----|---------2----------|---2-------0----3-|--2------|--2---0--|
-3------2-------|-------0------0--2--|-3-------2------3-|--0--0-2-|-3---2---|
----------------|--------------------|----------------1-|---------|---------|
  

 
|-3--3-3-3--3p-0-0---7-|--5---3---5----|-3--3-3-3--3h-0-0-|-2-----2-2-2-2-0-0-|
|-1--1-1-1--1--1-1---8-|--7---5---7----|-1--1-1-1--1--1-3-|-3-----3-3-3-3-0-0-|
|-2--2-2-2--2--2-2---9-|--7---5---7----|-2--2-2-2--2--2-0-|-2-----2-2-2-2-0-0-|
|-2--2-2-2--2--2-2---0-|----------0----|-2--2-2-2--2--2---|----0--0-----------|
|----------------------|-------------0-|------------------|-------------------|
|----------------------|---------------|------------------|-------------------|
                                                           
|-3--3-3-3--3--0-0---7-|--5---3---5----|
|-1--1-1-1--1--1-1---8-|--7---5---7----|
|-2--2-2-2--2--2-2---9-|--7---5---7----|
|-2--2-2-2--2--2-2---0-|----------0----|
|----------------------|-------------0-|
|----------------------|---------------|
 
 
------------------|------------------------|-----------------0--|--0--------|
---------1------3-|--------------1---------|-------1---------1--|--1--------|
-------0------0---|-----------2------------|-----0--------0--2--|--2--------|
-----2------0-----|---------2--------------|---2--------0----3--|--2--------|
---3------2-------|-------0----------0--2--|-3--------2------3--|--0---0-2--|
------------------|------------------------|-----------------1--|-----------|

 
----------------|-3--3-3-3--3--0-0-|-2-----2-2-2-2-----|-3--3-3-3--3--0-7-|
-------1------0-|-1--1-1-1--1--1-3-|-3-----3-3-3-3-0-0-|-1--1-1-1--1--1-8-|
-----0------0---|-2--2-2-2--2--0-0-|-2--2--2-2-2-2-0-0-|-0--0-2-0--0--0-9-|
---2------0-----|-2--2-2-2--2------|----0--0-----------|-2--2-2-2--2------|
-3------2-------|------------------|-------------------|------------------|
----------------|------------------|-------------------|------------------|
                                         
 
-5--3--5--|-3--3-3-3--3--0-0-|-2-----2-2-2-2-0-0-|-3--3-3-3--3--0-7-|-5--3--5-|
-7--5--7--|-1--1-1-1--1--1-3-|-3--3--3-3-3-3-0-0-|-1--1-1-1--1--1-8-|-7--5--7-|
-7--5--7--|-2--2-2-2--2--0-0-|-2--2--2-2-2-2-0-0-|-0--0-2-0--0--0-9-|-7--5--7-|
----------|-2--2-2-2--2------|-------------------|-2--2-2-2--2------|---------|
--------0-|------------------|-------------------|------------------|--------0|
----------|------------------|-------------------|------------------|---------|
                               
 
------------------|------------------------|-----------------0--|--0--------|
---------1------3-|-0h1----------1---------|-------1---------1--|--1--------|
-------0------0---|-----2-------2----------|-----0--------0--2--|--2--------|
-----2------0-----|---------2--------------|---2--------0----3--|--2--------|
-0h3------2-------|-------0----------0--2--|-3--------2------3--|--0---0-2--|
------------------|------------------------|-----------------1--|-----------|

 
                                                         
-----3--------3---|--2---------0-2--|-3----0-2--3--0-2--|---3-3-2---------|
---5--------3---4-|--3-------3-3-3--|-3--3-3-3--3--3-3--|---3-3-3-3-------|
-5-----5--4-------|--2-------2-2-2--|-2--2-2-2--2--2-2--|---2-2-2-0-------|
------------------|-----------------|-0--0-0-0--0--0-0--|---0-0-0-2-------|
------------------|-----------------|-------------------|---------3-------|
------------------|-----------------|-------------------|-----------------|
 
---2-2-2---|---2--2-2--0-0-0-2-|-3-0-2--0-2-|-3-3-3-3-|---2--2-2-0-0-|-0-2-2-0|
-3-3-3-3-1-|-1-3--3-3--3-3-3-3-|-3-3-3--3-3-|-3-3-3-3-|-3-3--3-3-3-3-|-3-3-3-3|
-0-0-0-0-0-|-0-0--0-0------2-2-|-2-2-2--2-2-|-2-2-2-0-|-0-0--0-0-0-0-|-0-0-0-0|
---------2-|-----------0-0-0-0-|-0-0-0--0-0-|-0-0-0-2-|-2------------|--------|
---------3-|-------------------|------------|-------3-|--------------|--------|
-----------|-------------------|------------|---------|--------------|--------|
 

 
 Am                   G   Fmaj7
|----------5---------------|------------------8--8-|
|------------8-5-----------|-------------8b10------|
|---7b9----------7-5---7p5-|-----------------------|
|--------------------7-----|-7p5-------------------|
|--------------------------|----8------------------|
|--------------------------|-----------------------|
  Am            G         Fmaj7
|--8b10---8--5  -----8--10-|-8-----------------------5-------|
|---------------8b10-------|---10-8----8h10------------8-5---|
|--------------------------|--------10-----------7b9-------7-|
|--------------------------|---------------------------------|
|--------------------------|---------------------------------|
|--------------------------|---------------------------------|
  Am             G          Fmaj7
|----------------------------|----5------------------------|
|----------------------------|------8-5--------------------|
|-5---7p5------------5---5-5-|----------7-5--7p5-----------|
|---7-----7-5---5-7----7-----|-5------------7----7p5-7p5---|
|-------------7--------------|---------------------------8-|
|----------------------------|-----------------------------|
 
  Am            G
|---------------------------------------------|
|------------------------------------------13-|
|---------10-------------------12----12-14----|
|------10----12-10----10-12/14----14----------|
|-8/12-------------12-------------------------|
|---------------------------------------------|
 Fmaj7
|------------------------15b17-15-12----------------|
|--15b17-15-13--15-13-13-------------15b17-15-13----|
|------------------------------------------------14-|
|---------------------------------------------------|
|---------------------------------------------------|
|---------------------------------------------------|
 Am                                        G
|----------------------------------------------------------------------------|
|-13-15b17b15p13----13-15b17b15p13----13---15b17b15p13----13--15b17b15p13----|
|----------------14----------------14------------------14-----------------14-|
|----------------------------------------------------------------------------|
|----------------------------------------------------------------------------|
|----------------------------------------------------------------------------|
 Fmaj7
|----------------------------------------------------------------------------|
|-13-15b17b15p13----13--15b17b15p13----13--15b17b15p13----13--15b17b15p13----|
|----------------14-----------------14-----------------14-----------------14-|
|----------------------------------------------------------------------------|
|----------------------------------------------------------------------------|
|----------------------------------------------------------------------------|
 
 Am                      G            hold bend
|------------------------------------------15b17--|
|-13--15b17b15p13----13---15b17b15p13----13-------|
|-----------------14------------------14----------|
|-------------------------------------------------|
|-------------------------------------------------|
|-------------------------------------------------|
 Fmaj7
|-b17b15-12---12--------------------------------15--|
|-----------15---15--13----13-15-13---13--15b17-----|
|-----------------------14----------14--------------|
|---------------------------------------------------|
|---------------------------------------------------|
|---------------------------------------------------|
 
                  * this slide riff is another guitar and
                  is actually played on the 1st string
                  ------8/7---8/5----
                   /
 Am          G /---------\   Fmaj7
-----------------------------|-----------17----------------------------------|
-15b17b15p13----13/12--13/10-|--------20----20-20----------------------------|
-------------14--------------|--19b21-21----------19b21b19p17---19--17----19-|
-----------------------------|--------------------------------19-------19----|
-----------------------------|-----------------------------------------------|
-----------------------------|-----------------------------------------------|
 Am       G         Fmaj7                             Am    G
|--------------------|--------------------------------|--------------|
|--------------------|--------------------------------|--------------|
|-19b21--13/12 13/10-|--14b17--14b17-14--12--14--12-12b14------------|
|--------------------|--------------------------------|--------------|
|--------------------|--------------------------------|--------------|
|--------------------|--------------------------------|--------------|
 Fmaj7                               Am        G
|-----------------------------------|----------8/7--8/5--|
|-----------------------------------|--------------------|
|-10b14----10b12b10-9-7----7--------|-7-9-7--------------|
|-----------------------10----10----|-------10-7---------|
|-----------------------------------|--------------------|
|-----------------------------------|--------------------|
 
 Fmaj7
|----20-p17------20-p17------20-p17------20-p17------20-p17-----20b22-|
|-17--------17----------17----------17----------17----------17--------|
|---------------------------------------------------------------------|
|---------------------------------------------------------------------|
|---------------------------------------------------------------------|
|---------------------------------------------------------------------|
 

 
  Am           G                  F  G   Am           G                F  G
|-5------------3----------------|-1--3-|-5------------3-------------|--1--3-|
|-5------------3----------------|-1--3-|-5------------3-------------|--1--3-|
|-5------------4----------------|-2--4-|-5------------4-------------|--2--4-|
|-7------------5----------------|-3--5-|-7------------5-------------|--3--5-|
|-7------------5----------------|-3--5-|-7------------5-------------|--3--5-|
|-5------------3----------------|-1--4-|-5------------3-------------|--1--4-|
 And as we   wind on down the road       Our shadows taller than our  soul
 
  Am           G               F  G    Am           G
|-5------------3-------------|-1--3--|-5------------3----------|
|-5------------3-------------|-1--3--|-5------------3----------|
|-5------------4-------------|-2--4--|-5------------4----------|
|-7------------5-------------|-3--5--|-7------------5----------|
|-7------------5-------------|-3--5--|-7------------5----------|
|-5------------3-------------|-1--4--|-5------------3----------|
 there walks a lady we all know         who shines w' light and to
 
  F                       G    Am       G
--1-----------------------3--|-------------------------------|
--1-----------------------3--|-------------------------------|
--2-----------------------4--|-------------------------------|
--3-----------------------5--|-------------------------------|
--3----------3--5h7--5--3-5--|-------------------------------|
--1----1-3h5--------------3--|-5---5--------3--3-------------|
  show                          how everything still turns to
 
                      Am           G               F  G    Am     G
|---------------------5------------3-------------|-1--3--|-5------3----------|
|---------------------5------------3-------------|-1--3--|-5------3----------|
|---------------------5------------4-------------|-2--4--|-5------4----------|
|---------------------7------------5-------------|-3--5--|-7------5----------|
|-------3--5h7--5--3--7------------5-------------|-3--5--|-7------5----------|
|-1-3h5---------------5------------3-------------|-1--4--|-5-5----3--3-------|
 gold                and if you listen very hard the tune will   come to u at
 
 
   F                     G   Am    G     F
|--1------------------------|----------0-|---0-0-0-0-----|
|--1------------------------|----------1-|---1-1-1-1-----|
|--2------------------------|----------2-|---2-2-2-2-----|
|--3------------------------|----------3-|---3-3-3-3-----|
|--3----------3--5h7--5--3--|------------|---------------|
|--1----1-3h5---------------|-5-5--3-3-1-|-1----------5-5|
  last                        when   all __  yeah
 
 Am    G       Fmaj7          Am      Am7/G      Fmaj7
|-----------0-|-0-0-0-0------|--------8-10-----|-------------------------|
|-----------1-|-1-1-1-0------|-8/10--------10--|--8h10p10----------3-3---|
|-----------2-|-2-2-2-0------|-----------------|-----------------5b7-2---|
|-----------3-|-3-3-3-0------|-----------------|---------------------3---|
|-------------|--------------|-----------------|-------------------------|
|-5-5--3-3--1-|--------------|-----------------|-------------------------|
  to be a rock  roll__
 
 
Am       Am7/G            Fmaj7              Am        Am7/G
|----------------------0--|-------------------|-------------------------|
|----5-------8------10-3--|-----13-------12---|-----13------12------13__|
|--7b9----10b12--12b14-0--|--15b17----14b16---|--15b17---14b16---15b17__|
|----------------------0--|-------------------|-------------------------|
|-------------------------|-------------------|-------------------------|
|-------------------------|-------------------|-------------------------|
 Fmaj7
|-----------------------------------------|
|-13------12-------13------15-------------|
|_17---14b16----15b17---17b19-------------|
|-----------------------------------------|
|-----------------------------------------|
|-----------------------------------------|
 
 
slow
Am        Am7/G         Fmaj7
|----------------------|-0---------------------------------------------|
|----13------12-----15-|-1----13---------------------------------------|
|-15b17---14b16--17b19-|-2-15b17---------------------------------------|
|----------------------|-3---------------------------------------------|
|----------------------|-----------------------------------------------|
|----------------------|-----------------------------------------------|
                                  And shes buying a stairway to heaven
                                  (Red Army Chorus sings the end!)
comments
print report bad tab
3 comments total.
0 reply
santoroguitar wrote on May 16 2013, 09:05 am

perfect :)

0 reply
veeti wrote on September 8 2013, 09:30 am

great tabs

0 reply
iamanangrygamer wrote on January 9 2014, 11:29 am

Awesome job!

I want to post or [tab]
guest
You may want to rate the tab now too:
select rating
Please do not post tabs as comments. Select "correction" instead!