Oops, an error
Loading. Please wait.

California Tab

ver3
ver3

Solo

Whole song

Interactive

More versions @911Tabs.com
1,531 views 3 this week
no commentswrite comment
1 2 3 4 5
excellent!
x 2
Autoscroll
+/-
esc
set tempo
stop
Contributor
Hey! There's an official Ultimate Guitar app which is ideal
for learning songs when you're away from computer. Get the app
WARNING: You are trying to view
                                    content from Ultimate-Guitar.com
                                    in an unauthorized application,
                                    which is prohibited.

                                    Please use an official Ultimate
                                    Guitar Tabs application for iPhone,
                                    iPad or Android to access legitimate
                                    chords, guitar, bass, and drum tabs
                                    from Ultimate-Guitar.com database.

                                    Type "ultimate guitar tabs" in Apple
                                    App Store's or Android Market's
                                    search to find the application.
Tabbed by Never_One

This is tabbed so all you have to do is play it from start to finish.
Sorry about the no lyrics thing i just got lazy:P

Distortion
|----0------------------------------|-----------------------------------|
|----0------------------------------|-----------------------------------|
|----1-------1----------------------|-----------------------------------|
|----2-------2----------------------|---6---6---6---6---6---6---6---6---|
|----2---2---2---2---2---2---2---2--|---6---6---6---6---6---6---6---6---|
|----0---0---0---0---0---0---0---0--|---4---4---4---4---4---4---4---4---|

|-----------------------------------|-------------------------------0---|
|-----------------------------------|-------------------------------0---|
|-----------------------------------|-------5---5---5---4---4-------1---|
|---7---7---7---7---7---7---7---7---|-------5---5---5---4---4---0---2---|
|---7---7---7---7---7---7---7---7---|---0---3---3---3---2---2---0---2---|
|---5---5---5---5---5---5---5---5---|-------------------------------0---|

|-------------------------------|-----------------------------------|
|-------------------------------|-----------------------------------|
|-------------------------------|-----------------------------------|
|---2---2---2---2---2---2---2---|---6---6---6---6---6---6---6---6---|
|---2---2---2---2---2---2---2---|---6---6---6---6---6---6---6---6---|
|---0---0---0---0---0---0---0---|---4---4---4---4---4---4---4---4---|

|-----------------------------------|-------------------------------0---|
|-----------------------------------|-------------------------------0---|
|-----------------------------------|-------5---5---5---4---4-------1---|
|---7---7---7---7---7---7---7---7---|-------5---5---5---4---4---0---2---|
|---7---7---7---7---7---7---7---7---|---0---3---3---3---2---2---0---2---|
|---5---5---5---5---5---5---5---5---|-------------------------------0---|

|-------------------------------|-----------------------------------|
|-------------------------------|-----------------------------------|
|-------------------------------|-----------------------------------|
|---2---2---2---2---2---2---2---|---6---6---6---6---6---6---6---6---|
|---2---2---2---2---2---2---2---|---6---6---6---6---6---6---6---6---|
|---0---0---0---0---0---0---0---|---4---4---4---4---4---4---4---4---|

|-----------------------------------|-------------------------------0---|
|-----------------------------------|-------------------------------0---|
|-----------------------------------|-------5---5---5---4---4-------1---|
|---7---7---7---7---7---7---7---7---|-------5---5---5---4---4---0---2---|
|---7---7---7---7---7---7---7---7---|---0---3---3---3---2---2---0---2---|
|---5---5---5---5---5---5---5---5---|-------------------------------0---|

|-----------------------------------|-------------------------------|
|-----------------------------------|-------------------------------|
|-------5---5---5---4---4---4-------|-------------------------------|
|-------5---5---5---4---4---4---4---|---4---4---4---4---4---4---4---|
|---0---3---3---3---2---2---2---4---|---4---4---4---4---4---4---4---|
|-------------------------------2---|---2---2---2---2---2---2---2---|

|-------------------------------|-------------------------------|
|-------------------------------|-------------------------------|
|---4---4---4-------4---4---4---|-------------------------------|
|---4---4---4-------4---4---4---|---4---4---4---4---4---4---4---|
|---2---2---2-------2---2---2---|---4---4---4---4---4---4---4---|
|-------------------------------|---2---2---2---2---2---2---2---|

|-------------------------------|-------------------------------|
|-------------------------------|-------------------------------|
|---4---4---4-------4---4---4---|-------------------------------|
|---4---4---4-------4---4---4---|---4---4---4---4---4---4---4---|
|---2---2---2-------2---2---2---|---4---4---4---4---4---4---4---|
|-------------------------------|---2---2---2---2---2---2---2---|

|-------------------------------|-------------------------------|
|-------------------------------|-------------------------------|
|---4---4---4-------4---4---4---|-------------------------------|
|---4---4---4-------4---4---4---|---4---4---4---4---4---4---4---|
|---2---2---2-------2---2---2---|---4---4---4---4---4---4---4---|
|-------------------------------|---2---2---2---2---2---2---2---|

|-------------------------------|-------------------------------|
|-------------------------------|-------------------------------|
|---4---4---4-------4---4---4---|-------------------------------|
|---4---4---4-------4---4---4---|---4---4---4---4---4---4---4---|
|---2---2---2-------2---2---2---|---4---4---4---4---4---4---4---|
|-------------------------------|---2---2---2---2---2---2---2---|

|-------------------------------|-----------------------------------|
|-------------------------------|-----------------------------------|
|---4---4---4-------4---4---4---|-----------------------------------|
|---4---4---4-------4---4---4---|---5---5---5---5---5---5---5---5---|
|---2---2---2-------2---2---2---|---5---5---5---5---5---5---5---5---|
|-------------------------------|---3---3---3---3---3---3---3---3---|

                                interlude  1/4      1/4
|-----------------------------------|-------------------------|
|-----------------------------------|-------------------------|
|-----------------------------------|-------------------------|
|---7---7---7---7---7---7---7---7---|---2--------2----------2-|
|---7---7---7---7---7---7---7---7---|---2--------2----------2-|
|---5---5---5---5---5---5---5---5---|---0---3b---0---3b-----0-|

       1/4      1/4       1/4
|---------------------------------|-----------------------------------|
|---------------------------------|-----------------------------------|
|---------------------------------|-----------------------------------|
|---2--------2--------2-------2---|---5---5---5---5---5---5---5---5---|
|---2--------2--------2-------2---|---5---5---5---5---5---5---5---5---|
|---0---3b---0---3b---0---3b--0---|---3---3---3---3---3---3---3---3---|

                                            1/4      1/4
|-----------------------------------|-------------------------|
|-----------------------------------|-------------------------|
|-----------------------------------|-------------------------|
|---7---7---7---7---7---7---7---7---|---2--------2----------2-|
|---7---7---7---7---7---7---7---7---|---2--------2----------2-|
|---5---5---5---5---5---5---5---5---|---0---3b---0---3b-----0-|

      1/4      1/4        1/4
|---------------------------------|-----------------------------------|
|---------------------------------|-----------------------------------|
|---------------------------------|-----------------------------------|
|---2--------2--------2-------2---|---5---5---5---5---5---5---5---5---|
|---2--------2--------2-------2---|---5---5---5---5---5---5---5---5---|
|---0---3b---0---3b---0---3b--0---|---3---3---3---3---3---3---3---3---|

|-----------------------------------|---|
|-----------------------------------|---|
|-----------------------------------|---|
|---7---7---7---7---7---7---7---7---|---|
|---7---7---7---7---7---7---7---7---|---|
|---5---5---5---5---5---5---5---5---|---|

Solo

|-------------------------------|-------------------------------|
|----------9/12--12--12--12--12-|--14--14-16--12----12--12--12--|
|------9------------------------|-------------------------------|
|-------------------------------|-------------------------------|
|-------------------------------|-------------------------------|
|-------------------------------|-------------------------------|

                                           full
|---0---0------0------0----0---|---------------------------|
|---10--10h12--10-----9----7---|-----5---7-7b--r7p5---7--5-|
|------------------------------|---------------------------|
|------------------------------|---------------------------|
|------------------------------|---------------------------|
|------------------------------|---------------------------|

|-----------------------------|----------------------------------|
|---5---9/12--12--12--12--12--|---14---14-16--12-----12--12--12--|
|-----------------------------|----------------------------------|
|-----------------------------|----------------------------------|
|-----------------------------|----------------------------------|
|-----------------------------|----------------------------------|

                                           full
|---0---0------0------0----0---|---------------------------|
|---10--10h12--10-----9----7---|-----5---7-7b--r7p5------5-|
|------------------------------|---------------------6-----|
|------------------------------|---------------------------|
|------------------------------|---------------------------|
|------------------------------|---------------------------|

|---15p12----------15p12----------15p12-|-----------15p12----------15p12-|
|---------12----12------12----12--------|---12----12------12----12-------|
|---------------------------------------|--------------------------------|
|---------------------------------------|--------------------------------|
|---------------------------------------|--------------------------------|
|---------------------------------------|--------------------------------|

-----------|---15p12--------15p12--------15p12--12-|
--12----12-|--------12----12-----12----12-----12---|
-----------|---------------------------------------|
-----------|---------------------------------------|
-----------|---------------------------------------|
-----------|---------------------------------------|

|------12h15p12-12h15p12-12h15p12-12h15p12----------12-12--11/12-|
|---12-------------------------------------12h15p12-12-12--11/12-|
|----------------------------------------------------------------|
|----------------------------------------------------------------|
|----------------------------------------------------------------|
|----------------------------------------------------------------|

|--12-11/12-12-11/12-12-11/12-12-11/12-12-11/12-12-|
|--12-11/12-12-11/12-12-11/12-12-11/12-12-11/12-12-|
|--------------------------------------------------|
|--------------------------------------------------|
|--------------------------------------------------|
|--------------------------------------------------|

                                full                   ~~~~~~~
|---11/12-12-------12----15-----15b----15--12-|---15---12-------------------|
|---11/12-12-12-------------------------------|---------------------12---15-|
|---------------------------------------------|-----------------------------|
|---------------------------------------------|-----------------------------|
|---------------------------------------------|-----------------------------|
|---------------------------------------------|-----------------------------|

    full
|-----------------------------------------|----------------|
|---15b--15---12--15--12------------------|----------------|
|---------------------------14-----13--14-|-------13---13\-|
|-----------------------------------------|----------------|
|-----------------------------------------|----------------|
|-----------------------------------------|----------------|

|----0------------------------------|-----------------------------------|
|----0------------------------------|-----------------------------------|
|----1-------1----------------------|-----------------------------------|
|----2-------2----------------------|---6---6---6---6---6---6---6---6---|
|----2---2---2---2---2---2---2---2--|---6---6---6---6---6---6---6---6---|
|----0---0---0---0---0---0---0---0--|---4---4---4---4---4---4---4---4---|

|-----------------------------------|-------------------------------0---|
|-----------------------------------|-------------------------------0---|
|-----------------------------------|-------5---5---5---4---4-------1---|
|---7---7---7---7---7---7---7---7---|-------5---5---5---4---4---0---2---|
|---7---7---7---7---7---7---7---7---|---0---3---3---3---2---2---0---2---|
|---5---5---5---5---5---5---5---5---|-------------------------------0---|

|-------------------------------|-----------------------------------|
|-------------------------------|-----------------------------------|
|-------------------------------|-----------------------------------|
|---2---2---2---2---2---2---2---|---6---6---6---6---6---6---6---6---|
|---2---2---2---2---2---2---2---|---6---6---6---6---6---6---6---6---|
|---0---0---0---0---0---0---0---|---4---4---4---4---4---4---4---4---|

|-----------------------------------|-----------------------------------|
|-----------------------------------|-----------------------------------|
|-----------------------------------|-------5---5---5---4---4---4-------|
|---7---7---7---7---7---7---7---7---|-------5---5---5---4---4---4---4---|
|---7---7---7---7---7---7---7---7---|---0---3---3---3---2---2---2---4---|
|---5---5---5---5---5---5---5---5---|-------------------------------2---|

|-------------------------------|------------------------------|
|-------------------------------|------------------------------|
|-------------------------------|---4---4---4-------4---4---4--|
|---4---4---4---4---4---4---4---|---4---4---4-------4---4---4--|
|---4---4---4---4---4---4---4---|---2---2---2-------2---2---2--|
|---2---2---2---2---2---2---2---|------------------------------|

|-------------------------------|------------------------------|
|-------------------------------|------------------------------|
|-------------------------------|---4---4---4-------4---4---4--|
|---4---4---4---4---4---4---4---|---4---4---4-------4---4---4--|
|---4---4---4---4---4---4---4---|---2---2---2-------2---2---2--|
|---2---2---2---2---2---2---2---|------------------------------|

|-------------------------------|------------------------------|
|-------------------------------|------------------------------|
|-------------------------------|---4---4---4-------4---4---4--|
|---4---4---4---4---4---4---4---|---4---4---4-------4---4---4--|
|---4---4---4---4---4---4---4---|---2---2---2-------2---2---2--|
|---2---2---2---2---2---2---2---|------------------------------|

|---------------------------------|--------------------------------|
|---------------------------------|--------------------------------|
|---------------------------------|--------------------------------|
|---5---5---5---5---5---5---5---5-|--7---7---7---7---7---7---7---7-|
|---5---5---5---5---5---5---5---5-|--7---7---7---7---7---7---7---7-|
|---3---3---3---3---3---3---3---3-|--5---5---5---5---5---5---5---5-|

|---0---|
|---0---|
|---1---|
|---2---|
|---2---|
|---0---|
comments
We did not receive enough feedback on this tab! Please rate:
print report bad tab
1 2 3 4 5
I want to post or [tab]
guest
You may want to rate the tab now too:
select rating
Please do not post tabs as comments. Select "correction" instead!