Oops, an error
Loading. Please wait.

Danza Del Altiplano Tab

ver1
ver1

Whole song

Interactive

More versions @911Tabs.com
1,706 views 3 this week
no commentswrite comment
1 2 3 4 5
excellent!
x 4
Autoscroll
+/-
esc
set tempo
stop
Contributor
Tabbers playing skills
intermediate +
Hey! There's an official Ultimate Guitar app which is ideal
for learning songs when you're away from computer. Get the app
WARNING: You are trying to view
                                    content from Ultimate-Guitar.com
                                    in an unauthorized application,
                                    which is prohibited.

                                    Please use an official Ultimate
                                    Guitar Tabs application for iPhone,
                                    iPad or Android to access legitimate
                                    chords, guitar, bass, and drum tabs
                                    from Ultimate-Guitar.com database.

                                    Type "ultimate guitar tabs" in Apple
                                    App Store's or Android Market's
                                    search to find the application.
Danza del Altiplano - Leo Brouwer (1939-)


|-5s8-5------|----------|------------|----------|------------|--------------|
|-------8-5--|----------|-3-5-3------|----------|------------|--------------|
|------------|----------|-------5-2--|----------|-2h5-2------|--------------|
|------------|----------|------------|----------|-------5-2--|--------------|
|------------|----------|------------|----------|------------|-5h7-5--------|
|------------|----------|------------|----------|------------|-------8-5----|

|------------|------------|-----------|------------|----------|-5s8-5------|
|------------|------------|-----------|------------|----------|-------8-5--|
|------------|------------|-0--0--0-0-|-0-0--------|-(0)------|------------|
|------------|------------|-7--7--7-7-|-7-7--------|-(7)------|------------|
|------------|------------|-7--7--7-7-|-7-7--------|-(7)------|------------|
|-0-5-5-3-5--|-0-5-5-3-5--|-5--5--5-5-|-5-5--------|-(5)------|------------|

|------------|------------|------------|------------|-------------|
|-3s5-3------|------------|------------|------------|-------------|
|-------5-2--|-2h5-2------|------------|------------|-------------|
|------------|-------5-2--|------------|------------|-------------|
|------------|------------|-5-7-5------|------------|-------------|
|------------|------------|-------8-5--|-0-5-5-3-5--|-0-5-5-3-5---|

|-----------|------------||--------------|----------0--|-3s5-5---5-3--|
|-----------|------------||-----------1--|--1-1---1-1--|-----------3--|
|-0--0--0-0-|-0-0--------||*--2-2---2----|--2-2---2-2--|-3s5-5---5-4--|
|-7--7--7-7-|-7-7--------||*--2-2---2-2--|--2----------|-1s3---3------|
|-7--7--7-7-|-7-7--------||---3---0------|------3---0--|--------------|
|-5--5--5-5-|-5-5--------||---0-------3--|--0----------|-----------3--|

|-0----0----|-3s5-5---5---3-|-0-0---0---------|----------------|
|-----------|---------------|---------------3-|-1-1--1-------0-|
|-0----0----|-3s5-5---5---4-|-0-0---0-----1---|-2-2--2-----0---|
|-----------|-1s3---3-------|-----------2-----|-2-2--2---0-----|
|-3--3---3--|---------------|-3---3-----------|-0--------------|
|-----------|-----------3---|---------0-------|--------0-------|

|--------------||-------------|-------------|-------------|--------------|
|---------0----||---------0---|---------0---|---------0---|---------0----|
|---2-----0---*||---2-----0---|---2-----0---|---2-----0---|---2-----0----|
|---2---------*||---2---------|---2---------|---2---------|---2----------|
|-3p==0--------||-3p==0-------|-3p==0-------|-3p==0-------|-3p==0--------|
|-------3p==0--||-------3p==0-|-------3p==0-|-------3p==0-|-------3p==0--|

|-<12>------|-------------------------|--------------------|
|-----------|-5h8p5-------------------|--------------------|
|-----------|-------7-5h7p5---0h2p0---|--------------------|
|-----------|---------------7-------2-|-0h2p0--------------|
|-----------|-------------------------|-------3-0h3p0------|
|-----------|-------------------------|---------------3-0--|

|-------------------------|--------------------|
|-5h8p5-------------------|--------------------|
|-------7-5h7p5---0h2p0---|--------------------|
|---------------7-------2-|-0h2p0--------------|
|-------------------------|-------3-0h3p0------|
|-------------------------|---------------3-0--|

|-------------0h3p0-|-------0h3p0-|-12tr15------|-12tr15------|
|-------------------|-------------|-------------|-------------|
|-------------------|-------------|-------------|-------------|
|-------2h5p2-------|-2h5p2-------|-------------|-------------|
|-------------------|-------------|-------------|-------------|
|-0h3p0-------------|-------------|-------------|-------------|

|-12tr15----------|-12tr15----------||-----0-----0-|-----0--------|
|-----------------|-----------------||-----1-----1-|-----1-----5--|
|-----------------|-----------------||-----2-----2-|-----2-----5--|
|-----------------|-----------------||-------------|-----------7--|
|--------0-0---0--|--------0-0---0--||-0-0---0-3---|-3-3---3S7----|
|--0---------0----|--0---------0----||-------------|--------------|

|-----7-----0-|---3p0-0-3p0-|-------0-------|---3p0-0-3p0-|
|-----8-----0-|---3p0-0-3p0-|-------0-----6-|---3p0-0-3p0-|
|-----7-----0-|---0---0-----|-------0-----6-|---0---0-----|
|-7-7---7-5---|-2-----------|-2S7-7---7-5---|-2-----------|
|-------------|-3-----------|-3S8-------6---|-3-----------|
|-------------|-------------|---------------|-------------|

|-------0-------|---3p0-0-3p0-|------------|-------------|
|-------0-----6-|---3p0-0-3p0-|------------|-------------|
|-------0-----6-|---0---0-----|------------|-------------|
|-2S7-7---7-5---|-2-----------|-2-2---2-0--|-------------|
|-3S8-------6---|-3-----------|------------|-3-----3-----|
|---------------|-------------|-----0---0--|-5p0-0-5p0-0-|

|------------|-------------|-^12-!12-^12-!12-^10--|
|------------|-------------|-^-9-!-9-^-9-!-9-^-9--|
|------------|-------------|-^-9-!-9-^-9-!-9-^-9--|
|-2-2---2-0--|-------------|-^-9-!-9-^-9-!-9-^-9--|
|------------|-3-----3-----|-^11-!11-^11-!11-^-9--|
|-----0---0--|-5p0-0-5p0-0-|---0------------------|

|-^8-!5-^5-!5-^8--|-^12-!12-^12-!12-^10---|
|-^5-!5-^5-!5-^5--|-^-9-!-9-^-9-!-9-^-9---|
|-^5-!5-^5-!5-^5--|-^-9-!-9-^-9-!-9-^-9---|
|-^5-!5-^5-!5-^5--|-^-9-!-9-^-9-!-9-^-9---|
|--0--------------|-^11-!11-^11-!11-^-9---|
|--0--------------|---0-------------------|

|-8p5-5-5h8-8-|-8p5-5-5h8-8-|-8p5-5h8-8p5-|-5h8-8p5-5h8--|
|-5---5-5---5-|-5---5-5---5-|-5---5---5---|-5---5---5----|
|-5---5-5---5-|-5---5-5---5-|-5---5---5---|-5---5---5----|
|-5---5-5---5-|-5---5-5---5-|-5---5---5---|-5---5---5----|
|-0-----------|-0-----------|-0-----------|-0------------|
|-0-----------|-0-----------|-0-----------|-0------------|

|-^8p5-5h8-8p5-|-5h8-8p5-5h8-|-8---8---|----------||-5s8-5------|--------|
|-^5---5---5---|-5---5---5---|-5---5---|----------||-------8-5--|--------|
|-^5---5---5---|-5---5---5---|-5---5---|----------||------------|--------|
|-^5---5---5---|-5---5---5---|-5---5---|----------||------------|--------|
|-^0-----------|-0-----------|-0---0---|----------||------------|--------|
|-^0-----------|-0-----------|-0---0---|----------||------------|--------|

|------------|----------|------------|------------|
|-3-5-3------|----------|------------|------------|
|-------5-2--|----------|-2h5-2------|------------|
|------------|----------|-------5-2--|------------|
|------------|----------|------------|-5h7-5------|
|------------|----------|------------|-------8-5--|

|------------|------------|------------|
|------------|------------|------------|
|------------|------------|------------|
|------------|------------|------------|
|------------|------------|------------|
|-0-5-5-3-5--|-0-5-5-3-5--|------------|

|-5s8-5------|------------|------------|------------|-------------|
|-------8-5--|-3S5-3------|------------|------------|-------------|
|------------|-------5-2--|-2h5-2------|------------|-------------|
|------------|------------|-------5-2--|------------|-------------|
|------------|------------|------------|-5-7-5------|-------------|
|------------|------------|------------|-------8-5--|-0-5-5-3-5---|

|------------|-----------|------------||-------------|---------0---|
|------------|-----------|------------||----------1--|-1-1---1-1---|
|------------|-0--0--0-0-|-0-0--------||*-2-2---2----|-2-2---2-2---|
|------------|-7--7--7-7-|-7-7--------||*-2-2---2-2--|-2-----------|
|------------|-7--7--7-7-|-7-7--------||--3---0------|-----3---0---|
|-0-5-5-3-5--|-5--5--5-5-|-5-5--------||--0-------3--|-0-----------|

|-3s5-5---5-3--|-0----0----|-3s5-5---5---3-|-0-0---0-----|--------------|
|-----------3--|-----------|---------------|-----------3-|-1-1---1---0--|
|-3s5-5---5-4--|-0----0----|-3s5-5---5---4-|-0-0---0---1-|-2-2---2---0--|
|-1s3---3------|-----------|-1s3---3-------|-----------2-|-2-2---2---0--|
|--------------|-3--3---3--|---------------|-3---3-------|-0---0--------|
|-----------3--|-----------|-----------3---|---------0---|---------0----|

|--------------||-------------|-------------|-------------|--------------|
|---------0----||---------0---|---------0---|---------0---|---------0----|
|---2-----0---*||---2-----0---|---2-----0---|---2-----0---|---2-----0----|
|---2---------*||---2---------|---2---------|---2---------|---2----------|
|-3p==0--------||-3p==0-------|-3p==0-------|-3p==0-------|-3p==0--------|
|-------3p==0--||-------3p==0-|-------3p==0-|-------3p==0-|-------3p==0--|

|-<12>------|-------------------------|--------------------|
|-----------|-5h8p5-------------------|--------------------|
|-----------|-------7-5h7p5---0h2p0---|--------------------|
|-----------|---------------7-------2-|-0h2p0--------------|
|-----------|-------------------------|-------3-0h3p0------|
|-----------|-------------------------|---------------3-0--|

|-------------0h3p0-|-------0h3p0-|-12tr15------|-12tr15------|
|-------------------|-------------|-------------|-------------|
|-------------------|-------------|-------------|-------------|
|-------2h5p2-------|-2h5p2-------|-------------|-------------|
|-------------------|-------------|-------------|-------------|
|-0h3p0-------------|-------------|-------------|-------------|

|-12tr15----------|-12tr15-------|--------||
|-----------------|--------------|--------||
|-----------------|--------------|-0S4----||
|-----------------|--------------|-3S7----||
|--------0-0---0--|--------0-0---|-3S7----||
|--0---------0----|--0---------0-|-1S5----||

comments
print report bad tab
I want to post or [tab]
guest
You may want to rate the tab now too:
select rating
Please do not post tabs as comments. Select "correction" instead!