Oops, an error
Loading. Please wait.

Sonata Movement 1 Fandangos Y Boleros Tab

1,268 views 3 this week
1 commentread comment
1 2 3 4 5
excellent!
x 4
Autoscroll
+/-
esc
set tempo
stop
Contributor
Tabbers playing skills
intermediate +
Hey! There's an official Ultimate Guitar app which is ideal
for learning songs when you're away from computer. Get the app
WARNING: You are trying to view
                                    content from Ultimate-Guitar.com
                                    in an unauthorized application,
                                    which is prohibited.

                                    Please use an official Ultimate
                                    Guitar Tabs application for iPhone,
                                    iPad or Android to access legitimate
                                    chords, guitar, bass, and drum tabs
                                    from Ultimate-Guitar.com database.

                                    Type "ultimate guitar tabs" in Apple
                                    App Store's or Android Market's
                                    search to find the application.
E||---------------6----------|-------------------6---------------------|
B||-------------6---8--------|-----------------6---6-6-8---8--8--8--8--|
G||-----------6--------------|---------------6-------------------------|
D||---------9----------------|-------------9---------------------------|
A||--------------------------|-<9>-------------------------------------|
E||-<9>----------------------|-----<9>---------------------------------|


---------------------6-----------6----------------------------------------------|
-------------------6---6-6-8-8-6---6-8----8--8--8--8--8-8-8-8-8-8-8-8-8-8-----6-|
-----------------6----------------------------------------------------------6---|
----<12>-----6-9----------------------------------------------------------6-----|
-<9>----------------------------------------------------------------------------|
--------<9>---------------------------------------------------------------------|


--11-8-0-3-6-6-0------------------0-----8-10-11-|--11--0----------6----------|
-------------------0---------0--------9---------|---------------6---8--------|
---------------------0-----0---10---8-----------|-------------6--------------|
-----------------9-------0----------------------|-----------9----------------|
-----------------------8------------------------|----------------------------|
--0---------------------------------------------|--11--0---------------------|


----------------6---------------------|----------------------------------|
--------------6---6-6-8---8--8--8--8--|------------------0---0---0---0---|
------------6-------------------------|----------------------------------|
----------9---------------------------|--------------------6---6---6---6-|
--------------------------------------|----------------------------------|
--4-0---------------------------------|--4p2-2-4-6-4-7p4-----------------|


--------------4h7-7p4-4-------|
------0---0-------------0---0-|
------------------------------|
--------6---6-------------6---|
--2---------------------------|
----4-------------------------|


------------6-----------6-------------------------------------6-11-|
----------6---6-6h8-8-6---6h8-8-8-8-8-8-8-8-------6h8-6---6h8------|
--------6---------------------------------------6-------6----------|
------9-------------------------------------6h9--------------------|
-------------------------------------------------------------------|
--4-0--------------------------------------------------------------|


--11--0------11-0--11-0--11-0-|--0-4-4-----------------|
------------------------------|-------------0-3-3------|
------------------------------|------------------------|
------------------------------|------------------------|
------------------------------|------------------------|
--11--0------11-0--11-0--11-0-|--0-4-4-----------------|


--0-4-4-4-----------------|-----0------------14-----|-----0------------14-----|
-------------0-3-3-3-3----|-------11-------------0--|-------11-------------0--|
--------------------------|---------<12>------------|---------<12>------------|
--------------------------|-------------<12>--------|-------------<12>--------|
--------------------------|-<9>---------------------|-------------------------|
--0-4-4-4-----------------|-------------------------|-<9>---------------------|


-----0------------14-----|------0--------0------------14-----|
-------11-------------0--|--------11-------11-------------0--|
---------<12>------------|----------<12>-----<12>------------|
-------------<12>--------|-----------------------<12>--------|
-------------------------|--11-------------------------------|
-<7>---------------------|--0--------------------------------|


------------0--------0-----------------------0-------14--------------|
--------------11-------11------------------0---11------------------0-|
----------------<12>-----<12>------------8--------12----10-0---0-----|
--4-6-6----------------------<12>---9-11-------------------------0---|
-------------------------------------------------------------9-------|
---------0-----------------------<7>---------------------------------|


------------0--------0------------|------------0----------0---|
--------------11-------11---------|--------7-0---9-11---9---0-|
----------------<12>-----<12>-----|----6-7--------------------|
--6-4-4----------------------<12>-|-------------------8-------|
----------------------------------|---------------------------|
---------0------------------------|-<9>-----------------------|


-------------0--------0------------|------------0----------0----------0----14-|
---------------11-------11---------|--------7-0---9-11---0--------------------|
-----------------<12>-----<12>-----|----6-7------------------------11---11----|
--6-4-4-6---------------------<12>-|-------------------8-----6-4-4------------|
-----------------------------------|------------------------------------------|
----------0------------------------|-<7>--------------------------------------|


-------------0--------0------------|
---------------11-------11---------|
-----------------<12>-----<12>-----|
--8-6-6-6---------------------<12>-|
-----------------------------------|
----------0------------------------|


------------0----------0---14-11-11-0------0-|------0------------14-----|
--------7-0---9-11---9---0------------0------|--------11-------------0--|
----6-7--------------------------------------|----------<12>------------|
-------------------8--------------------11---|--------------<12>--------|
---------------------------------------------|--------------------------|
-<9>-----------------------------------------|-<12>---------------------|


-----0------------14-----|-----0------------14-----|
-------11-------------0--|-------11-------------0--|
---------<12>------------|---------<12>------------|
-------------<12>--------|-------------<12>--------|
-------------------------|-------------------------|
-<7>---------------------|-<9>---------------------|


--11--0------11-0--11-0--11-0-|--0-4-4-------------------|
------------------------------|--------0-3-3-0-3-3-0-3-3-|
------------------------------|--------------------------|
------------------------------|--------------------------|
------------------------------|--------------------------|
--11--0------11-0--11-0--11-0-|--0-4-4-------------------|


--4---------4----------|--4-----------4---4-----|--4---------4----------|
--3--0-3--0---0-5-5--0-|--3--0-3--0---0-5-3-5-0-|--3--0-3--0---0-5-5--0-|
-----------------------|------------------------|-----------------------|
-----------------------|------------------------|-----------------------|
-----------------------|------------------------|-----------------------|
--4---------4----------|--4---------4-----------|--4---------4----------|


----4---4---4---4-----3---|--4---------4----------|----4-----4-----4-----4---|
----3-0-3-0-3---3-0-----0-|--3--0-3--0---0-5-5--0-|----3-0-----0---5-0-----0-|
--------------------2-----|-----------------------|--------2-----------2-----|
--------------------------|-----------------------|--------------------------|
--------------------------|-----------------------|--------------------------|
--4-----------4-----------|--4---------4----------|--4-----------4-----------|


--1----------1----------|--1-----------------------|--1-----------1-----------|
----0----------2-0------|------------0-----------0-|----------0-----2-0---0---|
------2-0--0-------2--0-|----0-2-0-2---------0-2---|----2-0-2---0-------2---0-|
------------------------|----------------0-3-------|--------------------------|
------------------------|--------------------------|--------------------------|
--1----------1----------|--1-----------1-----------|--1-----------1-----------|


--1-----------1-----------|--9-----9-------9----------0-|
----------0-----------0---|--12--9-10--9---12-9-10------|
----0-2-2---0-------2---0-|--9-------------9-------11---|
----------------0-3-------|-----------------------------|
--------------------------|-----------------------------|
--1-----------1-----------|--9-----------9--------------|


--7-------------------7-9-10-|--9-----9-------9----------0-|--11--0-11--0-|
--10-7---7-----7-9-10--------|--12--9-10--9---12-9-10------|--------------|
--7----9---7-9---------------|--9-------------9-------11---|--------------|
-----------------------------|-----------------------------|--------------|
-----------------------------|-----------------------------|--------------|
--7--------------------------|--9-----------9--------------|--11--0-11--0-|


--------4-0-------------4-|----------0-3-6-0-|--4---------4----------|
--------------2-0---------|------0-2---------|--3--0-3--0---0-5-5--0-|
------2---------------2---|----0-------------|-----------------------|
--------------3-----------|--3---------------|-----------------------|
----3-------1-------3-----|------------------|-----------------------|
--1---------------1-------|------------------|--4---------4----------|


----4-----4-----4-----4---|--------4-0-------------4-|--0------------------4-|
----3-0-----0---5-0-----0-|--------------2-0---------|--0--0-3--0-3----------|
--------2-----------2-----|------2---------------2---|--1----------------2---|
--------------------------|--------------3-----------|--2--------------------|
--------------------------|----3-------1-------3-----|--3--------------3-----|
--4-----------4-----------|--1---------------1-------|--0------------1-------|


--0----------------------------|--3---0-3---0---5-3-3---0-|
--0------------------------3-6-|------0-----0-----------0-|
--1--------------------3-5-----|------1-----1-----------1-|
--2------------------3---------|--------------------------|
--3--------------3-5-----------|----3-----3---0-------3---|
--0--0-3--0-3--3---------------|--------------------------|


------------------3-0-|--------------|-------------|--------------|
----------0-----2-----|--3---0-3---0-|-------------|--3---0-3---0-|
------------0---------|--------------|-------------|--------------|
------0-2-----3-------|------2-----2-|--2-5-5-75-2-|------2-----2-|
----------------------|--------------|-------------|--------------|
--0-1-----------------|----1-----1---|-------------|----1-----1---|

                     arp
-------------------|--4----4------6-4-4----|-------------|-64-----4-----------|
-------------------|--4--6----6---4------6-|-------------|--4---6-------------|
-------------------|--5----5------5---5----|-------------|--5-----------------|
--2-5-5-7-5-2-75-0-|--0---------------0----|-----0-3-0-0-|----0-------0-3-0-0-|
-------------------|------------0----------|---3---------|----------3---------|
-------------------|-----------------------|-------------|--------------------|


----6-8-------|------------1-------|------------1-------|----------0---3-0-6-|
--6-----9---0-|----------1---3-1-3-|----------1---3-0---|------------0-------|
--6-------8---|------1-3-----------|------1-3---------0-|--------1-----------|
--------------|----0---------------|----0---------------|------0-------------|
--------------|--------------------|--------------------|--------------------|
--------------|--3-----------------|--3-----------------|--4-3---------------|


--4-6-6-------------------|--6---------6----------|----6-----6-----6-----6---|
--------5-0-0-5-0-0-5-0-0-|--5--0-5--0---0-5-5--0-|----5-0-----0---5-0-3---0-|
--------------------------|-----------------------|--------------------------|
--------------------------|-----------------------|--------7-----------------|
--------------------------|-----------------------|--------------------------|
--4-6-6-------------------|--6---------6----------|--6-----------6-----------|

                            arp
--6-6-----------6---------|--0---------------0-5-0-|
----5-0-0---0---5-0-0-3-0-|--3--0-3--0-------------|
----------2---------------|--0-------------3-------|
--------------------------|--2---------------------|
--------------------------|--3-----------4---------|
--6-----------6-----------|--0---------2-----------|

 arp
--0-----------------------------2-0-|--0---0---0-------------8-|
--3--0-3--0---------0-----2-0-------|--3-0---3---0-------6-8---|
--0-------------------0-------3-----|--0---------------6-------|
--2-------------0-2-----3-----------|--2-------------7---------|
--3---------------------------------|--3-----------6-----------|
--0---------0-1---------------------|--0-----------------------|

 arp
--0----0---0---------------------2-0-5-2-2-0-0-5-5-8-|--0-5-5-8-0-5-5-8-|
--3--0---3-----------0-----2-0-----------------------|------------------|
--0--------------------0-------3---------------------|------------------|
--2--------------2-3-----3---------------------------|------------------|
--3--------------------------------------------------|------------------|
--0----------0-1-------------------------------------|------------------|


---------------0-----|---------------0-----|---------------0-----|
-------0-0-----------|-------0-0-----------|-------0-0-----------|
------------0--------|------------0--------|------------0--------|
-----7---------------|-----7---------------|-----7---------------|
------------------9--|------------------9--|------------------9--|
--8------------------|--8------------------|--8------------------|


------0-6-----------------|--------------------------|
--------------------------|--------------------------|
---------<12>----<12>-----|-<12>----<12>----<12>-----|
-------------<12>----<12>-|-----<12>----<12>----<12>-|
--11----------------------|--------------------------|
--0-----------------------|--------------------------|


---------------0---------------0--|---------------0---------------0--|
-------0-0--------------0---------|-------0-0--------------0---------|
------------0-------------<12>----|------------0-------------<12>----|
-----7---------------7------------|-----7---------------7------------|
------------------9---------------|------------------9---------------|
--8-------------------------------|--8-------------------------------|


---------------0---------------0--|------0--------0------------|
-------0-0--------------0---------|--------11-------11---------|
------------0-------------<12>----|----------<12>-----<12>-----|
-----7---------------7------------|-----------------------<12>-|
------------------9---------------|--11------------------------|
--8-------------------------------|--0-------------------------|


--------------------------|---------------0---------------0------10--|
--------------------------|-------0-0--------------0-----------------|
-<12>----<12>----<12>-----|------------0-------------<12>----11------|
-----<12>----<12>----<12>-|-----7---------------7--------------------|
--------------------------|------------------9-----------------------|
--------------------------|--8---------------------------------------|


---------------0---------------0------10--|
-------0-0--------------0-----------------|
------------0-------------<12>----11------|
-----7---------------7--------------------|
------------------9-----------------------|
--8---------------------------------------|


---------------0---------------0------10--|------0--------0--------0----|
-------0-0--------------0-----------------|--------11-------11-------11-|
------------0-------------<12>----11------|----------<12>-----<12>------|
-----7---------------7--------------------|-----------------------------|
------------------9-----------------------|--11-------------------------|
--8---------------------------------------|-00--------------------------|


--------------------------|---------------0---------------0------10--10-7-0-|
--------------------------|-------0-0--------------0------------------------|
-<12>----<12>----<12>-----|------------0-------------<12>----11-------------|
-----<12>----<12>----<12>-|-----7---------------7---------------------------|
--------------------------|------------------9------------------------------|
--------------------------|--8----------------------------------------------|


---------------0---------------0------10--10-7-0-|
-------0-0--------------0------------------------|
------------0-------------<12>----11-------------|
-----7---------------7---------------------------|
------------------9------------------------------|
--8----------------------------------------------|


---------------0---------------0------10--10-7-0-|-----0--------0--------0----|
-------0-0--------------0------------------------|-------11-------11-------11-|
------------0-------------<12>----11-------------|---------<12>-----<12>------|
-----7---------------7---------------------------|----------------------------|
------------------9------------------------------|--11------------------------|
--8----------------------------------------------|-00-------------------------|


--------------0------------|--------------0------------|
----------------11---------|----------------11---------|
-<12>----<12>-----<12>-----|-<12>----<12>-----<12>-----|
-----<12>-------------<12>-|-----<12>-------------<12>-|
---------------------------|---------------------------|
---------------------------|---------------------------|


---------------0---------------0------10-------10-10-7-0-|
-------0-0--------------0-------------------11-----------|
------------0--------------12-----11------8--------------|
-----7---------------7-----------------------------------|
------------------9--------------------------------------|
--8------------------------------------------------------|


---------------0---------------0------10-------10-10-7-0-|
-------0-0--------------0-------------------11-----------|
------------0--------------12-----11------8--------------|
-----7---------------7-----------------------------------|
------------------9--------------------------------------|
--8------------------------------------------------------|


---------------0---------------0------10-------10-10-7-0-|-----6---------0-|
-------0-0--------------0-------------------11-----------|-------0---4-----|
------------0--------------12-----11------8--------------|-----------------|
-----7---------------7-----------------------------------|---6-------------|
------------------9--------------------------------------|---------4-------|
--8------------------------------------------------------|-------------0---|


------0--------0--------0----|--------------0------------|
--------11-------11-------11-|----------------11---------|
----------<12>-----<12>------|-<12>----<12>-----<12>-----|
-----------------------------|-----<12>-------------<12>-|
--11-------------------------|---------------------------|
--0--------------------------|---------------------------|


--------------0------------|--------------------------|
----------------11---------|--------------------------|
-<12>----<12>-----<12>-----|-<12>----<12>----<12>-----|
-----<12>-------------<12>-|-----<12>----<12>----<12>-|
---------------------------|--------------------------|
---------------------------|--------------------------|


---------------0---------------0------10--|
-------0-0--------------0-----------------|
------------0-------------<12>----11------|
-----7---------------7--------------------|
------------------9-----------------------|
--8---------------------------------------|


--10-7-0---------------0------10-10-7-0-|
-----------0-----0---------11-----------|
-----------3-0---3-0-----8--------------|
---------------4-----4------------------|
----------------------------------------|
---------2------------------------------|


---------------0---------------0------10--|
-------0-0--------------0-----------------|
------------0-------------<12>----11------|
-----7---------------7--------------------|
------------------9-----------------------|
--8---------------------------------------|


--10-7-0---------------0------10-10-7-0-|
-----------0-----0---------11-----------|
-----------3-0---3-0-----8--------------|
---------------4-----4------------------|
----------------------------------------|
---------2------------------------------|


---------------0---------------0------10--|
-------0-0--------------0-----------------|
------------0-------------<12>----11------|
-----7---------------7--------------------|
------------------9-----------------------|
--8---------------------------------------|


--10-7-0---------------0------10-10-7-0-|-----6---------0-|
-----------0-----0---------11-----------|-------0---4-----|
-----------3-0---3-0-----8--------------|-----------------|
---------------4-----4------------------|---6-------------|
----------------------------------------|---------4-------|
---------2------------------------------|-------------0---|


------0------------14-----|------0------------14-----|
--------11-------------0--|--------11-------------0--|
----------<12>------------|----------<12>------------|
--------------<12>--------|--------------<12>--------|
--11----------------------|--11----------------------|
--------------------------|--0-----------------------|


------0------------14-----|------0--------------------|
--------11-------------0--|--------11-----------------|
----------<12>------------|----------<12>----<12>-----|
--------------<12>--------|--------------<12>----<12>-|
--11----------------------|--11-----------------------|
--0-----------------------|---------------------------|

                                          arp
--------------------------|----0--1--5--|--3--1-0-------|
--------------------------|----1--1-----|--1------------|
-<12>----<12>----<12>-----|----0-----5--|--0------------|
-----<12>----<12>----<12>-|-------3-----|--------<12>---|
--------------------------|----3--0-----|---------------|
--------------------------|----------1--|--0------------|


--4---------4----------|--4-----------4---4-----|----0--1--5--|---------------|
--3--0-3--0---0-5-5--0-|--3--0-3--0---0-5-3-5-0-|-------------|--8--6-5-3-----|
-----------------------|------------------------|-------------|------------0--|
-----------------------|------------------------|-------------|---------------|
-----------------------|------------------------|-------------|---------------|
--4---------4----------|--4---------4-----------|-------------|---------------|


---------------|------------|--4---------4----------|
-----3--5--6-5-|------------|--3--0-3--0---0-5-5--0-|
--5------------|------------|-----------------------|
---------------|-<12>-------|-----------------------|
---------------|------------|-----------------------|
---------------|------------|--4---------4----------|


----------4-----4-----4---|-----------|--------0--1-0-|-----0--1--3-1-|
----3-0-----0---5-0-----0-|-----------|-----3---------|--3------------|
--------2-----------2-----|--------0--|--5------------|---------------|
--------------------------|-----------|---------------|---------------|
--------------------------|-----------|---------------|---------------|
--4-----------4-----------|-----------|---------------|---------------|


--0--1--------|---------------6----------|
--------------|-------------6---8--------|
-------<12>---|-----------6--------------|
--------------|---------9----------------|
--------------|--------------------------|
--------------|-<9>----------------------|


----------------6---------------------|---------------0-----|
--------------6---6-6-8---8--8--8--8--|-------0-0-----------|
------------6-------------------------|------------0--------|
----------9---------------------------|-----7---------------|
-<9>----------------------------------|------------------9--|
---<9>--------------------------------|--8------------------|


------------0------10--|--------------|---------------|---------------|------||
-----0-----------------|--------------|--1------------|--1------------|------||
-------<12>----11------|--------------|---------------|---------------|------||
--7--------------------|--------------|---------------|---------------|------||
-----------------------|--------------|--3------------|--3------------|------||
-----------------------|--------------|---------------|---------------|------||
comments
print report bad tab
1 comment total.
0 reply
mattjamesrenn wrote on October 9 2013, 09:35 pm

this is one of my favourite pieces of music and never thought someone would go to the trouble of tabbing it out. Will give it a try thank you. is this similar to the way Celil Refik Kaya plays it?

I want to post or [tab]
guest
You may want to rate the tab now too:
select rating
Please do not post tabs as comments. Select "correction" instead!