Oops, an error
Loading. Please wait.

Accordian Bells Tab

269 views 9 this week
no commentswrite comment
1 2 3 4 5
please rate
Autoscroll
+/-
esc
set tempo
stop
Contributor
Difficulty
intermediate
Hey! There's an official Ultimate Guitar app which is ideal
for learning songs when you're away from computer. Get the app
WARNING: You are trying to view
                                    content from Ultimate-Guitar.com
                                    in an unauthorized application,
                                    which is prohibited.

                                    Please use an official Ultimate
                                    Guitar Tabs application for iPhone,
                                    iPad or Android to access legitimate
                                    chords, guitar, bass, and drum tabs
                                    from Ultimate-Guitar.com database.

                                    Type "ultimate guitar tabs" in Apple
                                    App Store's or Android Market's
                                    search to find the application.
ACCORDIAN BELLS by LEO KOTTKE

Standard tuning, capo on 4th fret. No difficult fretting, just play it fast and steady.



|E|------------------------|
|B|------------------------|
|G|------------------------|
|D|------------------------|
|A|------------------------|
|E|---------------------3--|

|--------------------------|--------------------0-----|
|--------1--0--------------|--------1-----------1-----|
|--------0--0--------0-----|--------0-----------------|
|-----2--------------0--2--|-----2-----------2--------|
|--3--------------2-----3--|--3-----------------------|
|--------------3-----------|-----------3--3--------3--|

|--------------------------|--------------------0-----|
|--------1--0--------------|--------1-----------1-----|
|--------0--0--------0-----|--------0-----------------|
|-----2--------------0--2--|-----2------------2-------|
|--3--------------2-----3--|--3-----------------------|
|--------------3-----------|-----------3--3--------3--|

|--------------------------|--------------0-----------|
|--------1--0--------------|--------0-----0--------0--|
|--------0--0--------0-----|--------0-----------0--0--|
|-----2--------------0--2--|-----------2--------2-----|
|--3--------------2-----0--|--0-----------------------|
|--------------3-----------|-----0-----------0--------|

|--------------------------|--------------------------|
|--------1--0--------------|--0-----0-----0-----0-----|
|--------2--0--------0-----|--0-----0-----0-----0-----|
|--------------------3/----|--9----10----10----10-----|
|-----0-----------2--------|--------------------------|
|--1-----------3--------0--|-----0-----0----10-----8/-|

|-----------0--------------|--------------------------|
|--------1--0--------------|--------------------------|
|--------0-----------0--2--|--------0--0--------------|
|--------------------2--3--|--------3--2--------------|
|-----------------2--------|-----3-----------3--5--7--|
|--7--0--------0-----------|--1-----------3-----------|

|-----------0--------------|--------------------------|
|--------1--0--------------|--------------------------|
|--------0-----------0--2--|--------0--0--------------|
|--------------------2--3--|--------3--2--------------|
|-----------------2--------|-----3--------------0--2--|
|--0--0--------0-----------|--1-----------3--3--------|

|--------------------------|--------------------------|
|--------1--3--------0--1--|--------------------------|
|--------0--0--------0--2--|-----------------2-----0--|
|-----2-----------0--------|--------2-----3-----3-----|
|--3-----------------------|-----0--------3-----3-----|
|--------------3-----------|--0--------0--------------|

|--------------------------|--------------------------|
|--------1--0--------------|--0-----0-----0-----------|
|--------0--0--------0-----|--0-----0-----0-----0-----|
|-----2--------------3/----|--9----10----10--2-----2--|
|--3--------------2--------|--------------------------|
|--------------3--------0--|-----0-----0--------------|

|--------------------------|--------------------------|
|--------0--1--------0--1--|--------0--1--------0--1--|
|-----2-----------0--------|-----0--------------------|
|--3-----------2-----------|--0--------------2--------|
|--------------------------|--------------3-----------|
|--------------------------|--------------------------|

|--------------------------|-----------------------0--|
|--------0--1--------0--1--|--------0--1--------1--0--|
|--------------------------|--------------------0-----|
|-----3-----------2--------|-----3--------------------|
|--0-----------------------|-----------------0--------|
|--------------3-----------|--1-----------0-----------|

|--------------------------|-----------------------0--|
|--------------------------|--------------------1--0--|
|--------0--2--------0--0--|--------------------0-----|
|--------2--3--------3--2--|-----0--------------------|
|-----2-----------3--------|--------2-----0-----------|
|--0-----------1-----------|--3--------3-----0--------|

|--------------------------|--------------------------|
|--------------------------|--------------------1--3--|
|--------0--2--------0--0--|--------------------0--0--|
|--------2--3--------3--2--|-----------------2--------|
|-----2-----------3--------|--------0--2--3-----------|
|--0-----------1-----------|--3--3--------------------|

|--------------------------|--------------------------|
|--------0--1--------------|--------------------1--0--|
|--------0--2--------------|-----2-----0--------0--0--|
|-----0--------------2-----|--3-----3--------2--------|
|-----------------0--------|--3-----3-----3-----------|
|--3-----------0--------0--|--------------------------|

|--------------------------|--------------------------|
|--------------0-----------|--------------------------|
|--------0-----0-----------|--------------------------|
|--------3/----9-----------|--------------------------|
|-----2--------------------|--------------------------|
|--3--------0--------------|-----------------------3--|

|--------------------------|--------------------------|
|--------0--0--------------|-----1p-0--1p-0--1p-0--1--|
|--------1--0--------0-----|--------------------------|
|-----2--------------0--2--|-----2p-0--2p-0--2p-0--2--|
|--3--------------2-----3--|--0-----------------------|
|--------------3-----------|--------3h----3h----3h----|

|--------------------------|--------------------------|
|--------0--0--------------|-----1p-0--1p-0--1p-0--1--|
|--------1--0--------0-----|--------------------------|
|-----2--------------0--2--|-----2p-0--2p-0--2p-0--2--|
|--3--------------2-----3--|--0-----------------------|
|--------------3-----------|--------3h----3h----3h----|

|--------------------------|--------------0-----------|
|--------1--0--------------|--------0-----0--------0--|
|--------0--0--------0-----|--------0-----------0--0--|
|-----2--------------0--2--|-----------2--------2-----|
|--3--------------2-----0--|--0-----------------------|
|--------------3-----------|-----0-----------0--------|

|--------------------------|--------------------------|
|--------1--0--------------|--0-----0-----0-----0-----|
|--------2--0--------0-----|--0-----0-----0-----0-----|
|--------------------3/----|--9----10----10----10-----|
|-----0-----------2--------|--------------------------|
|--1-----------3--------0--|-----0-----0----10-----8/-|

|-----------0--------------|--------------------------|
|--------1--0--------------|--------------------------|
|--------0-----------0--2--|--------0--0--------------|
|--------------------2--3--|--------3--2--------------|
|-----------------2--------|-----3-----------3--5--7--|
|--7--0--------0-----------|--1-----------3-----------|

|-----------0--------------|--------------------------|
|--------1--0--------------|--------------------------|
|--------0-----------0--2--|--------0--0--------------|
|--------------------2--3--|--------3--2--------------|
|-----------------2--------|-----3--------------0--2--|
|--0--0--------0-----------|--1-----------3--3--------|

|--------------------------|--------------------------|
|--------1--3--------0--1--|--------------------------|
|--------0--0--------0--2--|-----------------2-----0--|
|-----2-----------0--------|--------2-----3-----3-----|
|--3-----------------------|-----0--------3-----3-----|
|--------------3-----------|--0--------0--------------|

|--------------------------|--------------------------|
|--------1--0--------------|--------1--0--------------|
|--------0--0--------0-----|--------2--0--------0--2--|
|-----2--------------3-----|-----2--------------0--2--|
|--3--------------2--------|--0--------------2--------|
|--------------3--------0--|--------------3-----------|

|--------------------------|--------------------------|
|--------1--0--------------|--------1--0--------------|
|--------2--0--------0--2--|--------2--0--------0--2--|
|-----2--------------0--2--|-----2--------------0--2--|
|--0--------------2--------|--0--------------2--------|
|--------------3-----------|--------------3-----------|

|--------------------------|--------------------------|
|--------1--0--------------|--------1--0--------------|
|--------2--0--------0--2--|--------2--0--------0--2--|
|-----2--------------0--2--|-----2--------------0--2--|
|--0--------------2--------|--0--------------2--------|
|--------------3-----------|--------------3-----------|

|--------------------------|--------------------------|
|--------1--0--------------|--------1--0--------------|
|--------2--0--------0--2--|--------2--0--------0--2--|
|-----2--------------0--2--|-----2--------------0--2--|
|--0--------------2--------|--0--------------2--------|
|--------------3-----------|--------------3-----------|

|--------------------------|-----------0--------------|
|--------1--0--------------|--------2--0--------------|
|--------2--0--------0--2--|--------2-----------1--2--|
|-----2--------------0--2--|-----2--------------2--2--|
|--0--------------2--------|--0--------------2--------|
|--------------3-----------|--------------0-----------|

|--------0-----------------|--------------------------|
|-----2-----7--------5--3--|--2--0--------------------|
|-----2-----7--------------|--------2--1--------------|
|-----------------0--------|-----2--------2--0--------|
|--0-----------0-----------|--0----------------/4--2--|
|--------------------------|--------------------------|

|-----------0--------------|--------0-----------------|
|--------2--0--------------|-----2-----7--------5--3--|
|--------2-----------1--2--|-----2-----7--------------|
|--------------------2--2--|-----------------0--------|
|--0--------------2--------|--0-----------0-----------|
|-----0--------0-----------|--------------------------|

|--------------------------|--------------------------|
|--2--0--------------------|--1--0--------------------|
|--------2--1--------------|--------2--0--------------|
|-----2--------2--0--------|--3--3--3--0--3--2--0-----|
|--0----------------/4--2--|--------------0--0--2--3--|
|--------------------------|--------------------------|

|--------------------------|--------------------------|
|--------0--1--------0--1--|--------0--1--------0--1--|
|-----2-----------0--------|-----0--------------------|
|--3-----------2-----------|--0--------------2--------|
|--------------------------|--------------3-----------|
|--------------------------|--------------------------|

|--------------------------|--------------------------|
|--------0--1--------0--1--|--------0--1--------1--0--|
|--------------------------|--------------------0--0--|
|-----3-----------2--------|-----3--------------------|
|--0-----------------------|-----------------0--------|
|--------------3-----------|--1-----------0-----------|

|--------------------------|--------------------------|
|--------------------1--0--|--------------------1--0--|
|--------0--2--------2--0--|--------0--2--------2--0--|
|--------0--2-----2--------|--------0--2-----2--------|
|-----2--------0-----------|-----2--------0-----------|
|--3-----------------------|--3-----------------------|

|-----------------------0--|--------------------------|
|--------------------1--0--|--------------------------|
|--------0--2--------2-----|--------0--2--------0--0--|
|--------0--2-----2--------|--------2--3--------3--2--|
|-----2--------0-----------|-----2-----------3--------|
|--3-----------------------|--3-----------1-----------|

|-----------------------0--|--------------------------|
|--------------------1--0--|--------------------------|
|--------------------0-----|--------0--2--------0--0--|
|-----0--------------------|--------2--3--------3--2--|
|--------2-----0-----------|-----2-----------3--------|
|--3--------3-----0--------|--0-----------1-----------|

|--------------------------|--------------------------|
|--------------------1--3--|--------0--1--------------|
|--------------------0--0--|--------0--2--------------|
|-----------------2--------|-----0--------------2-----|
|--------0--2--3-----------|-----------------0--------|
|--3--3--------------------|--3-----------0--------0--|

|--------------------------|--------------------------|
|--------------------1--0--|--------------0-----------|
|-----2-----0--------0--0--|--------0-----0-----------|
|--3-----3--------2--------|--------3/----9-----------|
|--3-----3-----3-----------|-----2--------------------|
|--------------------------|--3--------0--------------|

|--------------------------|--------------------------|
|--------------------------|--------1--0--------------|
|--------------------------|--------2--0--------0--2--|
|--------------------------|-----2--------------0--2--|
|--------------------------|--0--------------2--------|
|-----------------------0--|--------------3-----------|

|--------------------------|--------------------------|
|--------1--0--------------|--------1--0--------------|
|--------2--0--------0--2--|--------2--0--------0--2--|
|-----2--------------0--2--|-----2--------------0--2--|
|--0--------------2--------|--0--------------2--------|
|--------------3-----------|--------------3-----------|

|--------------------------|--------------------------|
|--------1--0--------------|--------1--0--------------|
|--------2--0--------0--2--|--------2--0--------0--2--|
|-----2--------------0--2--|-----2--------------0--2--|
|--0--------------2--------|--0--------------2--------|
|--------------3-----------|--------------3-----------|

|--------------------------|--------------------------|
|--------1--0--------------|--------1--0--------------|
|--------2--0--------0--2--|--------2--0--------0--2--|
|-----2--------------0--2--|-----2--------------0--2--|
|--0--------------2--------|--0--------------2--------|
|--------------3-----------|--------------3-----------|

|--------------------------|-----------------5--------|
|--------1--0--------------|-----------------5--------|
|--------2--0--------0--2--|-----------------5--------|
|-----2--------------0--2--|--------------2-----------|
|--0--------------2--------|-----------3--------------|
|--------------3-----------|--0/-5--5-----------------|
comments
We did not receive enough feedback on this tab! Please rate:
print report bad tab
1 2 3 4 5
I want to post or [tab]
guest
You may want to rate the tab now too:
select rating
Please do not post tabs as comments. Select "correction" instead!