Oops, an error
Loading. Please wait.

Accordion Bells Tab

3,974 views 9 this week
no commentswrite comment
1 2 3 4 5
excellent!
x 1
add to favorites launch autoscroll
font size
0
reset
Autoscroll
+/-
esc
set tempo
stop
Contributor
Difficulty
intermediate
WARNING: You are trying to view
                                    content from Ultimate-Guitar.com
                                    in an unauthorized application,
                                    which is prohibited.

                                    Please use an official Ultimate
                                    Guitar Tabs application for iPhone,
                                    iPad or Android to access legitimate
                                    chords, guitar, bass, and drum tabs
                                    from Ultimate-Guitar.com database.

                                    Type "ultimate guitar tabs" in Apple
                                    App Store's or Android Market's
                                    search to find the application.
Accordian bells
                                  Leo Kottke
Std tuning, capo 2. Tab by Pig Doc and BS 10/19/98




F#||-------------------|--------------------------|--------------0-----------|
C#||-------------------|--1--0--------------------|--1-----------1-----------|
A||--------------------|--0--0--------0-----------|--0-----------0--------0--|
E||-----------------2--|--------------0--2-----2--|-----2-----2--------------|
B||--------------3-----|-----------2-----3--------|-----3--------------3-----|
F#||-------------------|--------3-----------3-----|--------3--------3--------|



--------------------------|--------------0-----------|
--1--0--------------------|--1-----------1-----------|
-----0--------0-----------|--0--0--------0-----------|
--2-----------0--2--------|-----2-----------------2--|
-----------2-----3-----3--|-----3-----3--------3-----|
--------3-----------3-----|--------3--------3--------|



--------------------------|--0-----0-----------------|
--1--0--------------------|--0-----0--------0--0h-1--|
--0--0--------0-----------|--0--------------0--0h-2--|
-----------------2--------|-----2--------2-----------|
-----------2--------0--0--|--------------------------|
--------3-----------------|-----------0--------0h-1--|



---------------------------|----------------------------|
--1--0---------------------|--0-------------------------|
--2--0--------------0------|--0------0------5-----------|
--3--0--------3\-0--10-----|--10-----10-----5-----------|
-----------2------------7--|------7------5-----3\-2-----|
--------3-----------8------|--8------8---------------0--|



--------------------------|--------------------------|
--1--0--------------------|--------------------------|
--0--0--------0--2--------|-----0--------------------|
--------------2--3--------|--3--2--------------------|
--3--------2-----------3--|-----------3--5/-7\-2-----|
--------0-----------1-----|--------3--------------0--|



--------------------------|--------------------------|
--1--0--------------------|--------------------------|
--0--0--------0--2--------|-----0--------------------|
--------------2--3--------|--3--2-----------------2--|
-----------2-----------3--|--------------0--2--3-----|
--------0-----------1-----|--------3--3--------------|



--------------------------|--------------------------|
--1--3--------0--1--------|--------------------------|
--0--0--------0--2--------|--2--------2-----0--------|
-----------0-----------2--|--------3-----3--------2--|
--------------------0-----|--------3-----------3-----|
--------3-----------------|-----1--------------------|



----------------------------|-----------------------------|
--1--0----------------------|-----------------------------|
--0--0--------0------0------|--0-----0------0----------2--|
--------------0--5/7-10-----|--9-----10-----10----2-3-----|
-----------2-------------7--|-----7------7------5\--------|
--------3------------8------|--8-----8------8-------------|



--------------------------|--------------------------|
--0h-1--------0h-1--------|--0h-1--------0--1--------|
-----------0-----------0--|--------------0--0--------|
--------2-----------0-----|-----------2-----------3--|
--------------------------|--------3-----------0-----|
--------------------------|--------------------------|



--------------------------|--------------|--------------------------|
--0h-1--------0h-1--------|--0h-1--------|--1--0--------------------|
--2-----------0-----------|--2-----------|--0--0--------0--2--------|
-----------2-----------3--|-----------2--|--------------0--3--------|
--------------------------|--------------|-----------2-----------3--|
--------3-----------1-----|--------0-----|--------3-----------1-----|




-------------------------|--------------------------|--------------------------|
-------------------------|--1--0--------------------|--------------------------|
-----0-------------------|--2--0--------0--2--------|-----0--------------------|
--3--2-----0-------------|--------------2--3--------|--3--2-----------------2--|
-----3--------2-----0----|-----------2-----------3--|--------------0--2--3-----|
--------3--------3-------|--------0-----------1-----|--------3--3--------------|



--------------------------|--------------------------|
--1--0--------0--1--------|--------------------------|
--0--0--------0--2--------|--2--------2-----0--------|
-----------0-----------2--|--------3-----3--2-----2--|
--------------------0-----|--------3-----------3-----|
--------3-----------------|-----1-----------3--------|



----------------------------|-----------------------------|
--1--0----------------------|-----------------------------|
--0--0--------0------0------|--0------0------0------------|
--------------0------10-----|--10-----10-----10--------2--|
-----------2-----5-7-----7--|------7------7---------3-----|
--------3------------8------|--8------8------8---3--------|



--------------------------|--------------------------|
--1--0-----------------1p-|--0--1p-0--1p-0--1--------|
--0--0--------0--------0--|-----0-----0--------------|
-----------------2--------|-----------------------2--|
-----------2-----3--------|--------------------3-----|
--------3-----------3-----|--3-----3-----3-----------|



--------------------------|--------------------------|
--1--0-----------------1--|--0--1p-0--1p-0--1--------|
--0--0--------0--------0p-|-----0-----0--------------|
-----------------2--------|-----------------------2--|
-----------2-----3--------|--------------------3-----|
--------3-----------3-----|--3-----3-----3-----------|



--------------------------|--------------------------|
--1--0--------------------|--0--------------0--------|
--0--0--------0-----------|--0--0-----------0--------|
-----------------2-----2--|--------2-----2-----3-----|
-----------2--------0-----|--------------------3-----|
--------3-----------------|-----------0-----------1--|



----------------------------|-----------------------------|
--1--0----------------------|-----------------------------|
--2--0--------0------0------|--0------0------0------------|
--------------0------10-----|--10-----10-----10-----------|
-----------2-----5/7-----7--|------7------5------3\-2-----|
--------3------------8------|--8------8------8---------0--|



--------------------------|--------------------------|
--1--0--------------------|--------------------------|
--0--0--------0--2--------|-----2--------------------|
--------------2--3--------|--3-----------------------|
-----------2-----------3--|-----------3--5/-7\-2-----|
--------0-----------1-----|--------3--------------0--|



--------------------------|--------------------------|
--1--0--------------------|--------------------------|
--0--0--------0--2--------|-----0--------------------|
--------------2--3--------|--3--2-----------------2--|
-----------2-----------3--|--------------0--2--3-----|
--------0-----------1-----|--------3--3--------------|



--------------------------|--------------------------|
--1--3--------0--1--------|--------------------------|
--0--0--------0--2--------|--2--------2-----0--------|
-----------0-----------2--|--------3-----3--------2--|
--------------------0-----|--------3-----------3-----|
--------3-----------------|-----1--------------------|



--------------------------|--------------------------|
--1--0--------------------|--1--0--------------------|
--0--0--------0-----------|--2--2--------0--2--------|
--------------0--------2--|--------------2--3-----2--|
-----------2--------0-----|-----------2--------0-----|
--------3--------0--------|--------3-----------------|



--------------------------|--------------------------|
--1--0--------------------|--1--0--------------------|
--2--2--------0--2--------|--2--2--------0-----------|
--------------2--3-----2--|--------------2--------2--|
-----------2--------0-----|-----------2--------0-----|
--------3-----------------|--------3--------0--------|



--------------------------|--------------0-----------|
--2--0-----------------2--|--5--7-----------3--2p-0--|
--2--2-----------2-----2--|--6--7-----2--------------|
--------------2--2--------|--------0--------------2--|
-----------2--2-----------|--------------------------|
--------0-----------0-----|--------------------------|



--------------------------|--------------------------|
--------------------------|--2--0-----------------2--|
--2\-1--------------------|--2--2-----------2-----2--|
--------2--0-----------2--|--------------2--2--------|
--------------4\-2--0-----|-----------2--2-----0-----|
--------------------------|--------0-----------------|



--------------0-----------|--------------------------|
--5--7-----------3\-2--0--|--------------------1p-0--|
--6--7-----2--------------|--2\-1--------------------|
--------0-----------2-----|--------2--0--------------|
--------------------------|--------------4--2--------|
--------------------------|--------------------------|



--------------------------|--------------|--------------------------|
--------------------------|--------------|--0h-1--------0h-1--------|
--2--0-----------------0--|-----------2--|-----------0-----------0--|
--3--0-----3--2--0--------|--1--2--3-----|--------2-----------0-----|
--------------0--2--3-----|--------------|--------------------------|
--------3--3--------------|--------------|--------------------------|



--------------------------|--------------------------|--------------|
--0h-1--------0--1--------|--0h-1--------0h-1--------|--0h-1--------|
--------------0--0--------|--2-----------0-----------|--2-----------|
-----------2-----------3--|-----------2-----------3--|--------------|
--------3-----------0-----|--------------------------|-----------0--|
--------------------------|--------3-----------1-----|--------0-----|



--------------------------|--------------------------|
--1--0--------------------|--1--0--------------------|
--0--0--------0--2--------|--2--2--------0--2--------|
--------------2--2-----2--|--------------0--2-----2--|
-----------2--------0-----|-----------2--------0-----|
--------3-----------------|--------3-----------------|



--------------------------|--------------------------|
--1--0--------------------|--1--0--------------------|
--2--0--------0--2--------|--2--0--------0--2--------|
--------------2--2-----2--|--------------2--2-----2--|
-----------2--------0-----|-----------2--------0-----|
--------3-----------------|--------3-----------------|



--------------------------|--------------------------|
--1--0--------------------|--------------------------|
--2--2--------0--2--------|-----0--------------------|
--------------2--3--------|--3--2--2--0-----------2--|
-----------2-----------3--|--------------2-----0-----|
--------3-----------1-----|-----------------3--------|



--------------------------|--------------------------|
--1--0--------------------|--------------------------|
--2--0--------0--2--------|-----0--------------------|
--------------2--3--------|--3--2-----------------2--|
-----------2-----------3--|--------------0--2--3-----|
--------0-----------1-----|--------3--3--------------|



--------------------------|--------------------------|
--1--3--------0--1--------|--------------------------|
--0--0--------0--2--------|--2--------2-----0--------|
-----------0-----------2--|--------3-----3--------2--|
--------------------0-----|--------3-----------3-----|
--------3-----------------|-----1--------------------|



--------------------------|--------------------------|
--1--0--------------------|--1--0--------------------|
--0--0--------0-----------|--2--0--------0--2--------|
--------------0--------2--|--------------2--2-----2--|
-----------2--------0-----|-----------2--------0-----|
--------3--------0--------|--------3-----------------|



--------------------------|--------------------------|
--1--0--------------------|--1--0--------------------|
--2--2--------0--2--------|--2--2--------0--2--------|
--------------2--2-----2--|--------------2--2-----2--|
-----------2--------0-----|-----------2--------0-----|
--------3-----------------|--------3-----------------|



--------------------------|--------------------------|
--1--0--------------------|--1--0--------------------|
--2--2--------0--2--------|--2--2--------0--2--------|
--------------2--2-----2--|--------------2--2-----2--|
-----------2--------0-----|-----------2--------0-----|
--------3-----------------|--------3-----------------|



--------------------------|--------------------------|
--1--0--------------------|--1--0--------------------|
--2--0--------0--2--------|--2--2--------0--2--------|
--------------2--2-----2--|--------------2--2--------|
-----------2--------0-----|-----------2--------0--2--|
--------3-----------------|--------3-----------------|



--------------------------|-----5--------------||
--1--0--------------------|-----5--------------||
--2--2--------0-----------|--5-----------------||
--------------2--------7--|--------------------||
-----------2--------------|--------------------||
--------3--------0/-5-----|--------------------||
comments
We did not receive enough feedback on this tab! Please rate:
print report bad tab
1 2 3 4 5
I want to post or [tab]
guest
You may want to rate the tab now too:
select rating
Please do not post tabs as comments. Select "correction" instead!