Oops, an error
Loading. Please wait.

Mona Ray Tab

ver1
ver1

Whole song

Interactive

More versions @911Tabs.com
1,535 views 3 this week
no commentswrite comment
1 2 3 4 5
accurate
x 1
add to favorites
launch autoscroll
font size
0
reset
Tab Pro tools
  • play this tab
  • loop segment
  • change instrument
  • show fretboard
  • metronome
Autoscroll
+/-
esc
set tempo
stop
WARNING: You are trying to view
                                    content from Ultimate-Guitar.com
                                    in an unauthorized application,
                                    which is prohibited.

                                    Please use an official Ultimate
                                    Guitar Tabs application for iPhone,
                                    iPad or Android to access legitimate
                                    chords, guitar, bass, and drum tabs
                                    from Ultimate-Guitar.com database.

                                    Type "ultimate guitar tabs" in Apple
                                    App Store's or Android Market's
                                    search to find the application.
#----------------------------------PLEASE NOTE---------------------------------#
#This file is the author's own work and represents their interpretation of the #
#song. You may only use this file for private study, scholarship, or research. #
#------------------------------------------------------------------------------##
From dgaudet@undergrad.math.uwaterloo.ca Sat Dec 11 00:23:33 EST 1993
Article: 10911 of rec.music.makers.guitar.tablature
Xref: undergrad.math.uwaterloo.ca rec.music.makers.guitar.tablature:10911
rec.music.makers.guitar.acoustic:1577
Newsgroups:
rec.music.makers.guitar.tablature,rec.music.makers.guitar.acoustic
Path: undergrad.math.uwaterloo.ca!dgaudet
From: dgaudet@undergrad.math.uwaterloo.ca (Dean Gaudet)
Subject: TAB: "Mona Ray" by Leo Kottke
Message-ID: 
Sender: news@undergrad.math.uwaterloo.ca
Organization: University of Waterloo
Date: Sat, 11 Dec 1993 05:20:36 GMT

I figure some folks would enjoy this -- there have been a few requests
for it.

Dean

"Mona Ray", by Leo Kottke

Mostly from version on _My Father's Face_, with pieces of the version
on _Dreams And All That Stuff_.  Based on transcription in
"Guitar Extra!" magazine.

h  hammer on
/  slide up
\  slide down
p  pull off
b  bend
.  divide a beat up into equal parts

I play it capo II; Leo plays it either uncapo'd, capo I, or capo IV
depending on which version you listen to.

  2                                   5
  4                                   8
E-|--0-h2--|-h3--2-h3-----------------|--------------------------------|
B-|--0-h2--|-----2--------------------|--------3--------2--------0-h2--|
G-|--0-h2--|-h4--2-h4-----------------|--------4--------2--------0-h2--|
D-|--------|--------0-----------------|-----4--------2--------0----h2--|
A-|--------|--------------0-----------|--2--------0--------------------|
D-|--------|-----------------5--4--2--|--------------------5-----------|
     .  .     1  .  .  .  2  .  .  .     1  .  2  .  3  .  4  .  5  .

  2
  4
E-|--------------------------|--------------------------|
B-|-h3--2-h3--------2--------|--0--------2--------0-h2--|
G-|-----2-----------2--------|--0--------2--------0-h2--|
D-|-h4--2-h4--------2-----0--|-----------2-----0----h2--|
A-|--------0-----------0-----|--------0-----------------|
D-|--0-----------0-----------|--5-\2--------2-p0--------|
     1  .  .  .  2  .  .  .     1  .  .  .  2  .  .  .

E-|-----------------------------|--------------------------|
B-|-h3--2-h3-----3--2h3p2-------|-----------2--------0-h2--|
G-|-----2-----------------4--2--|--0--------2--------0-h2--|
D-|-h4--2-h4--------------------|-----0-----------0----h2--|
A-|--------0--------------------|--------0-----------------|
D-|--0--------------------------|4/5-----------2-----------|
     1  .  .  .  2  .     .  .     1  .  .  .  2  .  .  .

E-|--------------------------|--------------------------|
B-|-h3--2-h3--------2--------|--0--------2-----------0--|
G-|-----2-----------2--------|--0--------2--------2-----|
D-|-h4--2-h4--------2-----0--|-----------2-----2--------|
A-|--------0-----------0-----|--------0-----------0-----|
D-|--0-----------0-----------|--5-\2--------2-----------|
     1  .  .  .  2  .  .  .     1  .  .  .  2  .  .  .

  5                                2
  8                                4
E-|--------------------------------|--------------------------|
B-|--------3--------2--------0-h2--|-h3--2-h3--------2--------|
G-|--------4--------2--------0-h2--|-----2-----------2--------|
D-|-----4--------2--------0----h2--|-h4--2-h4--------2-----0--|
A-|--2--------0--------------------|--------0-----------0-----|
D-|--------------------5-----------|--0-----------0-----------|
     1  .  2  .  3  .  4  .  5  .     1  .  .  .  2  .  .  .

E-|--------------------------|-----5-----------------------|
B-|--0--------2--------0-h2--|-h3-----3-----3--2h3p2-------|
G-|--0--------2--------0-h2--|-----------------------4--2--|
D-|-----------2-----0----h2--|-h4-----4--------------------|
A-|--------0-----------------|-----------------------------|
D-|--5-\2--------2-p0--------|--0--------------------------|
     1  .  .  .  2  .  .  .     1  .  .  .  2  .     .  .

E-|--------------------------|--------------------------|
B-|-----------2--------0-h2--|-h3--2-h3--------2--------|
G-|--0--------2--------0-h2--|-----2-----------2--------|
D-|-----0-----------0----h2--|-h4--2-h4--------2-----0--|
A-|--------0-----------------|--------0-----------0-----|
D-|4/5-----------2-----------|--0-----------0-----------|
     1  .  .  .  2  .  .  .     1  .  .  .  2  .  .  .

                             5                                1
                             8                                4
E-|--------------------------|--------------------------------|-----|
B-|--0--------2-----------0--|--------3--------2--------0-----|--x--|
G-|--0--------2--------2-----|--------4--------2--------0-----|--x--|
D-|-----------2-----2--------|-----4--------2--------0--------|--x--|
A-|--------0-----------0-----|--2--------0--------------------|--0--|
D-|--5-\2--------2-----------|--------------------5-----------|--0--|
     1  .  .  .  2  .  .  .     1  .  2  .  3  .  4  .  5  .     1

Part A:

  2
  4
E-|--0-h2-----2--------0-----|--0-h2-----------3--------|
B-|--3-----------3-----3-----|--3--------------0--------|
G-|--2-----2--------2--------|--2--------------------0--|
D-|--0-----------------------|--0-----------------0-----|
A-|--0-----------------------|--0-----------------------|
D-|--0--------------------0--|--0-----2--4-/5-----------|
     1  .  .  .  2  .  .  .     1  .  .  .  2  .  .  .

E-|--3--------7--------5-----|--3-\2--0-----------------|
B-|--0--------8--------7-----|--5-\4--0-----------------|
G-|--------0--------0-----0--|-----------2--------------|
D-|-----0--------0-----------|-----------4--------------|
A-|--------------------------|-----------------0--0--0--|
D-|--------------------------|--------------0--0--0--0--|
     1  .  .  .  2  .  .  .     1  .  .  .  2  .  .  .

E-|--0-h2-----2--------0-----|--0-h2-----------3--------|
B-|--3-----------3-----3-----|--3--------------0--------|
G-|--2-----2--------2--------|--2--------------------0--|
D-|--0-----------------------|--0-----------------0-----|
A-|--0-----------------------|--0-----------------------|
D-|--0--------------------0--|--0-----2--4-/5-----------|
     1  .  .  .  2  .  .  .     1  .  .  .  2  .  .  .

E-|--3--------3-s2-----0-----|--------------------------|
B-|--0--------------0--------|--3-p2--0-h2-h3-----------|
G-|-----0-----------------0--|--2--------------2-----2--|
D-|--------0-----0-----0-----|--------0-----------0-----|
A-|--------------------------|--0-----------------------|
D-|--------------------------|--------------0-----------|
     1  .  .  .  2  .  .  .     1  .  .  .  2  .  .  .

E-|--0-h2-----2--------0-----|--0-h2-----------3--------|
B-|--3-----------3-----3-----|--3--------------0--------|
G-|--2-----2--------2--------|--2--------------------0--|
D-|--0-----------------------|--0-----------------0-----|
A-|--0-----------------------|--0-----------------------|
D-|--0--------------------0--|--0-----2--4-/5-----------|
     1  .  .  .  2  .  .  .     1  .  .  .  2  .  .  .

                             1              2                    End of
Part A
                             4              4
E-|--3--------7--------5-----|--3-\2--0-----|--------------------------|
B-|--0--------8--------7-----|--5-\4--0--2--|-----------3-----------2--|
G-|--------0--------0-----0--|-----------2--|-----------2-----------0--|
D-|-----0--------0-----------|-----------2--|-----0-----2-----0-----2--|
A-|--------------------------|--------------|--------2-----------------|
D-|--------------------------|--------------|--------------------2-----|
     1  .  .  .  2  .  .  .     1  .  .  .     1  .  .  .  2  .  .  .

Ending 1:


E-|--------------------------|--------------------------|
B-|-(2)-------3--------0-h2--|-h3--2-h3--------2--------|
G-|-(0)-------0--------0-h2--|-----2-----------2--------|
D-|-(2)-2-----2--------0-h2--|-h4--2-h4--------2-----0--|
A-|--------2-----------------|--------0-----------0-----|
D-|--------------------------|--0-----------0-----------|
     1  .  .  .  2  .  .  .     1  .  .  .  2  .  .  .

E-|--------------------------|-----5-----------------------|
B-|--0--------2--------0-h2--|-h3-----3-----3--2h3p2-------|
G-|--0--------2--------0-h2--|-----------------------4--2--|
D-|-----------2-----0----h2--|-h4-----4--------------------|
A-|--------0-----------------|-----------------------------|
D-|--5-\2--------2-p0--------|--0--------------------------|
     1  .  .  .  2  .  .  .     1  .  .  .  2  .     .  .

E-|--------------------------|--------------------------|
B-|-----------2--------0-h2--|-h3--2-h3--------2--------|
G-|--0--------2--------0-h2--|-----2-----------2--------|
D-|-----0-----------0----h2--|-h4--2-h4--------2-----0--|
A-|--------0-----------------|--------0-----------0-----|
D-|4/5-----------2-----------|--0-----------0-----------|
     1  .  .  .  2  .  .  .     1  .  .  .  2  .  .  .

                             5                                1
                             8                                4
E-|--------------------------|--------------------------------|-----|
B-|--0--------2-----------0--|--------3--------2--------0-----|--x--|
G-|--0--------2--------2-----|--------4--------2--------0-----|--x--|
D-|-----------2-----2--------|-----4--------2--------0--------|--x--|
A-|--------0-----------0-----|--2--------0--------------------|--0--|
D-|--5-\2--------2-----------|--------------------5-----------|--0--|
     1  .  .  .  2  .  .  .     1  .  2  .  3  .  4  .  5  .     1

Repeat Part A, go to Ending 2.

Ending 2:


E-|--------------------------|--------------------------|
B-|-(2)-------3--------0-h2--|-h3-----------------------|
G-|-(0)-------0--------0-h2--|--------------------------|
D-|-(2)-2-----2--------0-h2--|-h4-----------------------|
A-|--------2-----------------|--------------------------|
D-|--------------------------|--0-----------------------|
     1  .  .  .  2  .  .  .     1  .  .  .  2  .  .  .

E-|--------------------------|--------------------------|
B-|--------------------------|--------------------------|
G-|--------------------------|--------4-----4-/6--------|
D-|--4-\2-----------4-\2-----|--0--------5-----------0--|
A-|--------0--0-----------0--|-----0--------------0-----|
D-|--0-----------0-----0-----|--------5-----5-/7--------|
     1  .  .  .  2  .  .  .     1  .  .  .  2  .  .  .

E-|--------------------------|--------------------------|
B-|--------------------------|--------------------------|
G-|-----------0--------------|--------------------------|
D-|-----4b5b4----2--0--------|-----------------------0--|
A-|--------------------2--0--|--------------------0-----|
D-|--0-----0-----------------|--0--4--5--0--5-/7--------|
     1  .  .  .  2  .  .  .     1  .  .  .  2  .  .  .

E-|--------------------------|--------------------------|
B-|--------------------------|--------------------------|
G-|--------------------------|--------------------------|
D-|-----------0--------0-----|--------5--0--5-/7-----0--|
A-|-----4-h5--------5-----5--|-----0--------------0-----|
D-|--0-----------0-----------|--0-----5-----5-/7--------|
     1  .  .  .  2  .  .  .     1  .  .  .  2  .  .  .

                             1              2
                             4              4
E-|--------------------------|--------------|--------------0-----------|
B-|-----3-----3-----2-----2--|-----0--------|-----------0-----0--------|
G-|-----4-----4-----2-----2--|-----0--------|--------0-----------0-----|
D-|-----4-----4-----2-----2--|-----0--------|-----2--------2--------2--|
A-|--2-----2-----0-----0-----|--------------|--------2-----------------|
D-|--------------------------|--5-----5-\2--|--2-----------------------|
     1  .  .  .  2  .  .  .     1  .  .  .     1  .  .  .  2  .  .  .

E-|--------------3-----------|--------------------------|
B-|-----------2--------------|--------------------------|
G-|--------0-----------------|--0-----0-----0-----0-----|
D-|-----2--------2-----------|-----4-----4-----4-----4--|
A-|--0-----------------------|--------4-----x-----4-----|
D-|--------------------------|--4-----x-----4-----x-----|
     1  .  .  .  2  .  .  .     1  .  .  .  2  .  .  .

E-|--------------------------|--------------------------|
B-|--------------------------|--------------------------|
G-|--0-----0-----0-----0-----|--------------0-----------|
D-|-----4-----4-----4--------|--0-h2-----2-----2-----2--|
A-|--x-----4-----x-----------|--------------2-----------|
D-|--4-----x-----4-----4-\2--|-(2)----2-----------2-----|
     1  .  .  .  2  .  .  .     1  .  .  .  2  .  .  .

E-|--------------------------|--------------------------|
B-|--------------------------|--------------------------|
G-|--0-----------0-----------|--0-----0-----0-----0-----|
D-|-----2-----2-----2-----2--|-----2-----2-----2-----2--|
A-|--2-----------2-----------|--0-----------0-----------|
D-|--------2-----------2-----|--------2-----------2-----|
     1  .  .  .  2  .  .  .     1  .  .  .  2  .  .  .

E-|--------------------------|--------------0-----------|
B-|--------------------------|-----------------0--------|
G-|--0-----0-----0-----0-----|-----------0--------------|
D-|-----2-----2-----2-----2--|--0-h2--------2--------0--|
A-|--0-----------0-----------|--0-h2--------------2-----|
D-|--------2-----------2-----|--------2-----------------|
     1  .  .  .  2  .  .  .     1  .  .  .  2  .  .  .

E-|--------------------------|--------------------------|
B-|--2--2--2--2--2--2--2--2--|--2--2--2--2--2-----0-h2--|
G-|--0--0--0--0--0--0--0--0--|--0--0--0--0--0-----0-h2--|
D-|--------------------------|--------------------0-h2--|
A-|--0--0--0--0--0--0--0--0--|--0--0--0--0--0-----------|
D-|--------------------------|--------------------------|
     1  .  .  .  2  .  .  .     1  .  .  .  2  .  .  .

  2
  4
E-|--------------------------|--------------------------|
B-|-h3--2-h3--------2--------|--0--------2--------0-h2--|
G-|-----2-----------2--------|--0--------2--------0-h2--|
D-|-h4--2-h4--------2-----0--|-----------2-----0----h2--|
A-|--------0-----------0-----|--------0-----------------|
D-|--0-----------0-----------|--5-\2--------2-p0--------|
     1  .  .  .  2  .  .  .     1  .  .  .  2  .  .  .

E-|-----5-----------------------|--------------------------|
B-|-h3-----3-----3--2h3p2-------|-----------2--------0-h2--|
G-|-----------------------4--2--|--0--------2--------0-h2--|
D-|-h4-----4--------------------|-----0-----------0----h2--|
A-|--------0--------------------|--------0-----------------|
D-|--0--------------------------|4/5-----------2-----------|
     1  .  .  .  2  .     .  .     1  .  .  .  2  .  .  .

E-|--------------------------|--------------------------|
B-|-h3--2-h3--------2--------|--0--------2-----------0--|
G-|-----2-----------2--------|--0--------2--------2-----|
D-|-h4--2-h4--------2-----0--|-----------2-----2--------|
A-|--------0-----------0-----|--------0-----------0-----|
D-|--0-----------0-----------|--5-\2--------2-----------|
     1  .  .  .  2  .  .  .     1  .  .  .  2  .  .  .


  5                                1
  8                                4
E-|--------------------------------|--------------|
B-|--------3--------2--------0-----|--------------|
G-|--------4--------2--------0-----|--------------|
D-|-----4--------2--------0--------|--0-----------|
A-|--2--------0--------------------|--0-----------|
D-|--------------------5-----------|--0-----------|
     1  .  2  .  3  .  4  .  5  .     1  .  .  .

Repeat part A, go to ending 3.

Ending 3:


E-|--------------------0-h2--|-h3--2-h3-----------------|
B-|-(2)-------3--------0-h2--|-----2--------------------|
G-|-(0)-------0--------0-h2--|-h4--2-h4-----------------|
D-|-(2)-2-----2--------------|--------0-----------------|
A-|--------2-----------------|--------------0-----------|
D-|--------------------------|-----------------5--4--2--|
     1  .  .  .  2  .  .  .     1  .  .  .  2  .  .  .

  5
  8
E-|--------------------------------|--------------------------|
B-|--------3--------2--------0-h2--|-h3-----------------------|
G-|--------4--------2--------0-h2--|--------------------------|
D-|-----4--------2--------0----h2--|-h4-----------------------|
A-|--2--------0--------------------|--------------------------|
D-|--------------------5-----------|--0-----------------------|
     1  .  2  .  3  .  4  .  5  .     1  .  .  .  2  .  .  .
comments
We did not receive enough feedback on this tab! Please rate:
print report bad tab
1 2 3 4 5
I want to post or [tab]
guest
You may want to rate the tab now too:
select rating
Please do not post tabs as comments. Select "correction" instead!