Oops, an error
Loading. Please wait.

Automatic Tab

ver1
ver1

Whole song

More versions @911Tabs.com
2,860 views 1 this week
no commentswrite comment
1 2 3 4 5
excellent!
x 2
Autoscroll
+/-
esc
set tempo
stop
Contributor
WARNING: You are trying to view
                                    content from Ultimate-Guitar.com
                                    in an unauthorized application,
                                    which is prohibited.

                                    Please use an official Ultimate
                                    Guitar Tabs application for iPhone,
                                    iPad or Android to access legitimate
                                    chords, guitar, bass, and drum tabs
                                    from Ultimate-Guitar.com database.

                                    Type "ultimate guitar tabs" in Apple
                                    App Store's or Android Market's
                                    search to find the application.
Automatic by Less Than Jake
Tabbed by Vulgar101.com


It's not too easy to find this song tabbed out, and when you do, it's
usually junk, so here you go.  It's a pretty rough song to tab since
everything changes so quickly, but here it is, from start to finish,
the entire song. As usual I have the lyrics at the bottom but I didn't
place the chord changes above them like usual, since this song moves
so fast.  So you'll just have to memorize it first.


INTRO: DISTORTION
     D                            G                   B                     
E||------------------------|-----------------------|------------------------|
B||------------------------|-----------------------|------------------------|
G||--7----7----7--7--7-----|-----------------------|------------------------|
D||--7----7----7--7--7--5--|------5----5--5--5--5--|--9----9----9--9--9--9--|
A||--5----5----5--5--5--5--|------5----5--5--5--5--|--9----9----9--9--9--9--|
E||---------------------3--|------3----3--3--3--3--|--7----7----7--7--7--7--|



  G      A              D                           G                 
---------------------|------------------------|-----------------------|
---------------------|------------------------|-----------------------|
---------------------|--7----7----7--7--7-----|-----------------------|
--5------7------7----|--7----7----7--7--7--5--|------5----5--5--5--5--|
--5------7------7----|--5----5----5--5--5--5--|------5----5--5--5--5--|
--3------5------5----|---------------------3--|------3----3--3--3--3--|

                                              HORNS/BASS/DRUMS ENTER
  F#                       G      A              D                      
------------------------|---------------------|------------------------|
------------------------|---------------------|------------------------|
------------------------|---------------------|--7----7----7--7--7-----|
--4----4----4--4--4--4--|--5------7------7----|--7----7----7--7--7--5--|
--4----4----4--4--4--4--|--5------7------7----|--5----5----5--5--5--5--|
--2----2----2--2--2--2--|--3------5------5----|---------------------3--|


      G                   B                        G      A            
-----------------------|------------------------|---------------------|
-----------------------|------------------------|---------------------|
-----------------------|------------------------|---------------------|
------5----5--5--5--5--|--9----9----9--9--9--9--|--5------7------7----|
------5----5--5--5--5--|--9----9----9--9--9--9--|--5------7------7----|
------3----3--3--3--3--|--7----7----7--7--7--7--|--3------5------5----|


  D                            G                   F#
------------------------|-----------------------|------------------------|
------------------------|-----------------------|------------------------|
--7----7----7--7--7-----|-----------------------|------------------------|
--7----7----7--7--7--5--|------5----5--5--5--5--|--4----4----4--4--4--4--|
--5----5----5--5--5--5--|------5----5--5--5--5--|--4----4----4--4--4--4--|
---------------------3--|------3----3--3--3--3--|--2----2----2--2--2--2--|

                      VERSE - UPSTROKES
  G      A                D                      D
---------------------|----5----5----5----5--|----5----5----5----5--|
---------------------|----7----7----7----7--|----7----7----7----7--|
---------------------|----7----7----7----7--|----7----7----7----7--|
--5------7------7----|----------------------|----------------------|
--5------7------7----|----------------------|----------------------|
--3------5------5----|----------------------|----------------------|


    G                      A                          G
----7----7----7----7--|----9-----9-----9-----9---|----7----7----7----7--|
----8----8----8----8--|----10----10----10----10--|----8----8----8----8--|
----7----7----7----7--|----9-----9-----9-----9---|----7----7----7----7--|
----------------------|--------------------------|----------------------|
----------------------|--------------------------|----------------------|
----------------------|--------------------------|----------------------|


    D                      A                          A
----5----5----5----5--|----9-----9-----9-----9---|----9-----9-----9-----9---|
----7----7----7----7--|----10----10----10----10--|----10----10----10----10--|
----7----7----7----7--|----9-----9-----9-----9---|----9-----9-----9-----9---|
----------------------|--------------------------|--------------------------|
----------------------|--------------------------|--------------------------|
----------------------|--------------------------|--------------------------|


    D                      D                      G
----5----5----5----5--|----5----5----5----5--|----7----7----7----7--|
----7----7----7----7--|----7----7----7----7--|----8----8----8----8--|
----7----7----7----7--|----7----7----7----7--|----7----7----7----7--|
----------------------|----------------------|----------------------|
----------------------|----------------------|----------------------|
----------------------|----------------------|----------------------|


    A                          G                      D
----9-----9-----9-----9---|----7----7----7----7--|----5----5----5----5--|
----10----10----10----10--|----8----8----8----8--|----7----7----7----7--|
----9-----9-----9-----9---|----7----7----7----7--|----7----7----7----7--|
--------------------------|----------------------|----------------------|
--------------------------|----------------------|----------------------|
--------------------------|----------------------|----------------------|

                                                     cHORUS: DISTORTION
    A                          A                        D
----9-----9-----9-----9---|----9-----9-----9-----9---|------------------------|
----10----10----10----10--|----10----10----10----10--|------------------------|
----9-----9-----9-----9---|----9-----9-----9-----9---|--7----7----7--7--7-----|
--------------------------|--------------------------|--7----7----7--7--7--5--|
--------------------------|--------------------------|--5----5----5--5--5--5--|
--------------------------|--------------------------|---------------------3--|


      G                   B                        G      A
-----------------------|------------------------|---------------------|
-----------------------|------------------------|---------------------|
-----------------------|------------------------|---------------------|
------5----5--5--5--5--|--9----9----9--9--9--9--|--5------7------7----|
------5----5--5--5--5--|--9----9----9--9--9--9--|--5------7------7----|
------3----3--3--3--3--|--7----7----7--7--7--7--|--3------5------5----|


  D                            G                   F#
------------------------|-----------------------|------------------------|
------------------------|-----------------------|------------------------|
--7----7----7--7--7-----|-----------------------|------------------------|
--7----7----7--7--7--5--|------5----5--5--5--5--|--4----4----4--4--4--4--|
--5----5----5--5--5--5--|------5----5--5--5--5--|--4----4----4--4--4--4--|
---------------------3--|------3----3--3--3--3--|--2----2----2--2--2--2--|


  G      A              D                            G
---------------------|------------------------|-----------------------|
---------------------|------------------------|-----------------------|
---------------------|--7----7----7--7--7-----|-----------------------|
--5------7------7----|--7----7----7--7--7--5--|------5----5--5--5--5--|
--5------7------7----|--5----5----5--5--5--5--|------5----5--5--5--5--|
--3------5------5----|---------------------3--|------3----3--3--3--3--|


  B                        G      A              D                  G
------------------------|---------------------|------------------------|
------------------------|---------------------|------------------------|
------------------------|---------------------|--7----7----7--7--7-----|
--9----9----9--9--9--9--|--5------7------7----|--7----7----7--7--7--5--|
--9----9----9--9--9--9--|--5------7------7----|--5----5----5--5--5--5--|
--7----7----7--7--7--7--|--3------5------5----|---------------------3--|


      G                   F#                  G         A
-----------------------|-------------------|--------------------|
-----------------------|-------------------|--------------------|
-----------------------|-------------------|--------------------|
------5----5--5--5--5--|--4----------------|--5--------7--------|
------5----5--5--5--5--|--4----------------|--5--------7--------|
------3----3--3--3--3--|--2----------------|--3--------5--------|

VERSE - UPSTROKES
    D                                             G
----5----5----5----5--|----5----5----5----5--|----7----7----7----7--|
----7----7----7----7--|----7----7----7----7--|----8----8----8----8--|
----7----7----7----7--|----7----7----7----7--|----7----7----7----7--|
----------------------|----------------------|----------------------|
----------------------|----------------------|----------------------|
----------------------|----------------------|----------------------|


    A                          G                      D
----9-----9-----9-----9---|----7----7----7----7--|----5----5----5----5--|
----10----10----10----10--|----8----8----8----8--|----7----7----7----7--|
----9-----9-----9-----9---|----7----7----7----7--|----7----7----7----7--|
--------------------------|----------------------|----------------------|
--------------------------|----------------------|----------------------|
--------------------------|----------------------|----------------------|


    A                          A                          D
----9-----9-----9-----9---|----9-----9-----9-----9---|----5----5----5----5--|
----10----10----10----10--|----10----10----10----10--|----7----7----7----7--|
----9-----9-----9-----9---|----9-----9-----9-----9---|----7----7----7----7--|
--------------------------|--------------------------|----------------------|
--------------------------|--------------------------|----------------------|
--------------------------|--------------------------|----------------------|


    D                      G                      A
----5----5----5----5--|----7----7----7----7--|----9-----9-----9-----9---|
----7----7----7----7--|----8----8----8----8--|----10----10----10----10--|
----7----7----7----7--|----7----7----7----7--|----9-----9-----9-----9---|
----------------------|----------------------|--------------------------|
----------------------|----------------------|--------------------------|
----------------------|----------------------|--------------------------|


    G                      D                      A
----7----7----7----7--|----5----5----5----5--|----9-----9-----9-----9---|
----8----8----8----8--|----7----7----7----7--|----10----10----10----10--|
----7----7----7----7--|----7----7----7----7--|----9-----9-----9-----9---|
----------------------|----------------------|--------------------------|
----------------------|----------------------|--------------------------|
----------------------|----------------------|--------------------------|

                          CHORUS: DISTORTION
    A                        D                            G
----9-----9-----9-----9---|------------------------|-----------------------|
----10----10----10----10--|------------------------|-----------------------|
----9-----9-----9-----9---|--7----7----7--7--7-----|-----------------------|
--------------------------|--7----7----7--7--7--5--|------5----5--5--5--5--|
--------------------------|--5----5----5--5--5--5--|------5----5--5--5--5--|
--------------------------|---------------------3--|------3----3--3--3--3--|


  B                        G      A              D
------------------------|---------------------|------------------------|
------------------------|---------------------|------------------------|
------------------------|---------------------|--7----7----7--7--7-----|
--9----9----9--9--9--9--|--5------7------7----|--7----7----7--7--7--5--|
--9----9----9--9--9--9--|--5------7------7----|--5----5----5--5--5--5--|
--7----7----7--7--7--7--|--3------5------5----|---------------------3--|


      G                   F#                       G      A
-----------------------|------------------------|---------------------|
-----------------------|------------------------|---------------------|
-----------------------|------------------------|---------------------|
------5----5--5--5--5--|--4----4----4--4--4--4--|--5------7------7----|
------5----5--5--5--5--|--4----4----4--4--4--4--|--5------7------7----|
------3----3--3--3--3--|--2----2----2--2--2--2--|--3------5------5----|


  D                            G                   B
------------------------|-----------------------|------------------------|
------------------------|-----------------------|------------------------|
--7----7----7--7--7-----|-----------------------|------------------------|
--7----7----7--7--7--5--|------5----5--5--5--5--|--9----9----9--9--9--9--|
--5----5----5--5--5--5--|------5----5--5--5--5--|--9----9----9--9--9--9--|
---------------------3--|------3----3--3--3--3--|--7----7----7--7--7--7--|


  G      A              D                            G
---------------------|------------------------|-----------------------|
---------------------|------------------------|-----------------------|
---------------------|--7----7----7--7--7-----|-----------------------|
--5------7------7----|--7----7----7--7--7--5--|------5----5--5--5--5--|
--5------7------7----|--5----5----5--5--5--5--|------5----5--5--5--5--|
--3------5------5----|---------------------3--|------3----3--3--3--3--|


  F#                  G        A           D
-------------------|--------------------|-------------------|------------------|
-------------------|--------------------|-------------------|------------------|
-------------------|--------------------|--7----------------|------------------|
--4----------------|--5--------7--------|--7----------------|------------------|
--4----------------|--5--------7--------|--5----------------|------------------|
--2----------------|--3--------5--------|-------------------|------------------|


SKA BREAK
    B                      B                      A
----7----7----7----7--|----7----7----7----7--|----9-----9-----9-----9---|
----7----7----7----7--|----7----7----7----7--|----10----10----10----10--|
----8----8----8----8--|----8----8----8----8--|----9-----9-----9-----9---|
----------------------|----------------------|--------------------------|
----------------------|----------------------|--------------------------|
----------------------|----------------------|--------------------------|


    E                      B                      A
----7----7----7----7--|----7----7----7----7--|----9-----9-----9-----9---|
----9----9----9----9--|----7----7----7----7--|----10----10----10----10--|
----9----9----9----9--|----8----8----8----8--|----9-----9-----9-----9---|
----------------------|----------------------|--------------------------|
----------------------|----------------------|--------------------------|
----------------------|----------------------|--------------------------|


    E                    B                        B
----7----7----7----7--|--7----7----7----7----|----7----7----7----7--|
----9----9----9----9--|--7----7----7----7----|----7----7----7----7--|
----9----9----9----9--|--8----8----8----8----|----8----8----8----8--|
----------------------|----------------------|----------------------|
----------------------|----------------------|----------------------|
----------------------|----------------------|----------------------|


    B                      A                          E
----7----7----7----7--|----9-----9-----9-----9---|----7----7----7----7--|
----7----7----7----7--|----10----10----10----10--|----9----9----9----9--|
----8----8----8----8--|----9-----9-----9-----9---|----9----9----9----9--|
----------------------|--------------------------|----------------------|
----------------------|--------------------------|----------------------|
----------------------|--------------------------|----------------------|


    B                      A                          B
----7----7----7----7--|----9-----9-----9-----9---|----7----7----7----7--|
----7----7----7----7--|----10----10----10----10--|----7----7----7----7--|
----8----8----8----8--|----9-----9-----9-----9---|----8----8----8----8--|
----------------------|--------------------------|----------------------|
----------------------|--------------------------|----------------------|
----------------------|--------------------------|----------------------|

                   DISTORTION
  E                   D                                      E
--7----------------|-------------------|------------------|-------------------|
--9----------------|-------------------|------------------|-------------------|
--9----------------|--7----------------|------------------|--9----------------|
-------------------|--7----------------|------------------|--9----------------|
-------------------|--5----------------|------------------|--7----------------|
-------------------|-------------------|------------------|-------------------|


  A                   G                   D                   A
-------------------|-------------------|-------------------|-------------------|
-------------------|-------------------|-------------------|-------------------|
-------------------|-------------------|--7----------------|-------------------|
--7----------------|--5----------------|--7----------------|--7----------------|
--7----------------|--5----------------|--5----------------|--7----------------|
--5----------------|--3----------------|-------------------|--5----------------|


                     D                   D                   E
------------------|-------------------|-------------------|-------------------|
------------------|-------------------|-------------------|-------------------|
------------------|--7----------------|--7----------------|--9----------------|
------------------|--7----------------|--7----------------|--9----------------|
------------------|--5----------------|--5----------------|--7----------------|
------------------|-------------------|-------------------|-------------------|


  A                   G                   D                   A
-------------------|-------------------|-------------------|-------------------|
-------------------|-------------------|-------------------|-------------------|
-------------------|-------------------|--7----------------|-------------------|
--7----------------|--5----------------|--7----------------|--7----------------|
--7----------------|--5----------------|--5----------------|--7----------------|
--5----------------|--3----------------|-------------------|--5----------------|

                   CHORUS 2: UP ONE STEP
  D                   E                   A                  C#
-------------------|-------------------|-------------------|-------------------|
-------------------|-------------------|-------------------|-------------------|
--7----------------|--9----------------|-------------------|-------------------|
--7----------------|--9----------------|--7----------------|--10---------------|
--5----------------|--7----------------|--7----------------|--10---------------|
-------------------|-------------------|--5----------------|--8----------------|


  A        B           E                   A                   G#
--------------------|-------------------|-------------------|------------------|
--------------------|-------------------|-------------------|------------------|
--------------------|--9----------------|-------------------|------------------|
--7--------9--------|--9----------------|--7----------------|--6---------------|
--7--------9--------|--7----------------|--7----------------|--6---------------|
--5--------7--------|-------------------|--5----------------|--4---------------|


  A        B           E                   A
--------------------|-------------------|-------------------|
--------------------|-------------------|-------------------|
--------------------|--9----------------|-------------------|
--7--------9--------|--9----------------|--7----------------|
--7--------9--------|--7----------------|--7----------------|
--5--------7--------|-------------------|--5----------------|


  C#                  A        B           E
-------------------|--------------------|-------------------|
-------------------|--------------------|-------------------|
-------------------|--------------------|--9----------------|
--10---------------|--7--------9--------|--9----------------|
--10---------------|--7--------9--------|--7----------------|
--8----------------|--5--------7--------|-------------------|


  A                   G#                  A        B
-------------------|-------------------|--------------------|
-------------------|-------------------|--------------------|
-------------------|-------------------|--------------------|
--7----------------|--6----------------|--7--------9--------|
--7----------------|--6----------------|--7--------9--------|
--5----------------|--4----------------|--5--------7--------|


  E
-------------------|------------------||
-------------------|------------------||
--9----------------|------------------||
--9----------------|------------------||
--7----------------|------------------||
-------------------|------------------||



Automatic Lyrics

Verse

I think, I think I know it all,
But can I be sure of the things I've grown to know about
And can I say I know it all,
When rules just guide me to blindly follow


Chorus

Damn things are
Automatic when you see
Them everyday, everyday
Is it the same routine
or just the fucked up dreams
That keep me walking
Mindless all the way?


Verse

I think, I think I know it all
But is our beliefs just stringing us along
And was there something wrong in what
I heard for every hour of the day?


Chorus

Damn things are
Automatic when you see
Them everyday, everyday
Is it the same routine
or just the fucked up dreams
That keep me walking
Mindless all the way?


Ska Break

I think, I think I know it all
I think, I think I know it all


Chorus

Damn things are
Automatic when you see
Them everyday, everyday
Is it the same routine
or just the fucked up dreams
That keep me walking
Mindless all the way?
comments
We did not receive enough feedback on this tab! Please rate:
1 2 3 4 5
I want to post or [tab]
guest
You may want to rate the tab now too:
select rating
Please do not post tabs as comments. Select "correction" instead!