Oops, an error
Loading. Please wait.

Does The Lion City Still Roar Bass Tab

7,269 views 18 this week
2 commentsread comments
1 2 3 4 5
excellent!
x 2
Autoscroll
+/-
esc
set tempo
stop
Contributor
WARNING: You are trying to view
                                    content from Ultimate-Guitar.com
                                    in an unauthorized application,
                                    which is prohibited.

                                    Please use an official Ultimate
                                    Guitar Tabs application for iPhone,
                                    iPad or Android to access legitimate
                                    chords, guitar, bass, and drum tabs
                                    from Ultimate-Guitar.com database.

                                    Type "ultimate guitar tabs" in Apple
                                    App Store's or Android Market's
                                    search to find the application.
-------------------------------------------------------------------------------
			     Does The Lion City Still Roar? - Less Than Jake
-------------------------------------------------------------------------------

Tabbed By : identityxcrysis
e-mail: xrunawayboyx@hotmail.com

Tuning:Standard (EADG)



Intro -

G|-------------------------------------------|
D|-------------------------------------------|
A|-2-2-222-----------------------------------|  x2
E|---------3-33-3333-0-0-000-2-22-2222-------|

G|-----------------------------------------|
D|-----------------------------------------|
A|-2-2-222------------5-5-555--------------| x1
E|---------3-33-3333----------2-22-2222----|

Then play the first part again on the last time



First Verse
The rhythm here is pretty easy, all the note values are equal

G|------------------2-4---------------------|
D|----4-5-2-4-0-2-------4-5-2-4-0-2---------|
A|-2--------------------------------4-------|
E|------------------------------------------|


G|--------------------------------------------|
D|--4-5-2-4-0-2------4-7-4--------------------|
A|-2------------4--5-----------4-7-4----------|
E|---------------------------5----------------|

First chorus

G|-------------------------------------------|
D|-------------------------------------------|
A|-2-2-222-----------------------------------|
E|---------3-33-3333-0-0-000-2-22-2222-------|

G|-----------------------------------------|
D|-----------------------------------------|
A|-2-2-222------------5-5-555--------------|
E|---------3-33-3333----------2-22-2222----|

"The city feels like a cage..."

G|---------------------------------------------|
D|---------------------------------------------|
A|-0-0-000-2-22-2222---------5-55-5555---------|
E|-------------------3-3-333-------------------|

"It's almost set to explode..."
G|--------------------------------------------|
D|---------------------------4--4--2--4-------|
A|--------------------------------------------|
E|-3-3-333-3-33-3333-2-2-222------------------|

Post-chorus

G|-----------------------------------------------|
D|---------------------7\----4-7-4---------------|
A|-------------------------5----------4-7-4------|
E|-7\---7\---5-7-7-7\---------------5------------|


Verse 2 (same as verse 1)

G|------------------2-4---------------------|
D|----4-5-2-4-0-2-------4-5-2-4-0-2---------|
A|-2--------------------------------4-------|
E|------------------------------------------|


G|--------------------------------------------|
D|--4-5-2-4-0-2------4-7-4--------------------|
A|-2------------4--5-----------4-7-4----------|
E|---------------------------5----------------|

Chorus 2 (same as chorus one except the fill, just play each phrase twice as many times)

G|-------------------------------------------|
D|-------------------------------------------|
A|-2-2-222-----------------------------------|
E|---------3-33-3333-0-0-000-2-22-2222-------|

G|-----------------------------------------|
D|-----------------------------------------|
A|-2-2-222------------5-5-555--------------|
E|---------3-33-3333----------2-22-2222----|

"The city feels like a cage..."

G|---------------------------------------------|
D|-----------------------------4-7-4h5p4-------|
A|-0-0-000-2-22-2222---------5-----------5\----|
E|-------------------3-3-333-------------------|

"It's almost set to explode..."
G|--------------------------------------------|
D|---------------------------4--4--2--4-------|
A|--------------------------------------------|
E|-3-3-333-3-33-3333-2-2-222------------------|


Bridge (Basically the intro)

G|-------------------------------------------|
D|-------------------------------------------|
A|-2-2-222-----------------------------------| 
E|---------3-33-3333-0-0-000-2-22-2222-------|

G|-----------------------------------------|
D|-----------------------------------------|
A|-2-2-222------------5-5-555--------------| 
E|---------3-33-3333----------2-22-2222----|

Then when the guitar palm-mutes, you come in on the last note with the octave

G|--------------|
D|--44444444----|
A|--------------|
E|--------------|

The last two phrases are just:
G|-----------------------------------------|
D|----------------------------4-44-4444----|
A|-2-2-222------------5-5-555--------------| 
E|---------3-33-3333-----------------------|

And end with 

G|--------------|
D|--------------|
A|--------------|
E|-3~---2~------|

comments
We did not receive enough feedback on this tab! Please rate:
1 2 3 4 5
2 comments total.
0 reply
Jay Awesome wrote on June 5 2008, 11:43 pm

I actually just herd this song its f**kin' awesome. Can't wait for the album.

+1 reply
skaman27 wrote on June 24 2008, 09:28 pm

I know its a REALLY minor difference but i think in the verse the A (2nd fret on the G string) that you put is actually an A# (3rd fret) like this:
G|------------------3-4---------------------|
D|----4-5-2-4-0-2-------4-5-2-4-0-2---------|
A|-2--------------------------------4-------|
E|------------------------------------------|

I want to post or [tab]
guest
You may want to rate the tab now too:
select rating
Please do not post tabs as comments. Select "correction" instead!