Oops, an error
Loading. Please wait.

In With The Out Crowd Tab

1,557 views 3 this week
no commentswrite comment
1 2 3 4 5
excellent!
x 1
add to favorites launch autoscroll
font size
0
reset
Autoscroll
+/-
esc
set tempo
stop
Contributor
Difficulty
intermediate
WARNING: You are trying to view
                                    content from Ultimate-Guitar.com
                                    in an unauthorized application,
                                    which is prohibited.

                                    Please use an official Ultimate
                                    Guitar Tabs application for iPhone,
                                    iPad or Android to access legitimate
                                    chords, guitar, bass, and drum tabs
                                    from Ultimate-Guitar.com database.

                                    Type "ultimate guitar tabs" in Apple
                                    App Store's or Android Market's
                                    search to find the application.
Artist: Less Than Jake
Album: In With The Out Crowd
Tracks:
1.Soundtrack of my life
2.A still life franchise
3.Overrated(everything is)
4.Fall apart
5.Independence day
6.Don't fall asleep on the subway
7.Landmines and landslides
8.The rest of my life
9.Mostly memories
10.Let her go
11.Hopeless case
12.P.S. shock the world

Hey here's my tab for the latest LTJ album none of the tabs are from me so here's my 
of thanks to the people who submited the tabs:
Tracks 1-2, 4-5, 7, 9-11:
Thanks to identityxcrisis
Track 3:
Thanks to ed182
Track 6:
Thanks to wizlon
Track 8:
Thanks to 1<3h
1.Soundtrack of my life

Intro
            Those are 10s, not 1s and 0s
e|-9--9--9-9-9--10-1010-101010--|
B|-10-10-101010-10-1010-101010--|
G|------------------------------|
D|------------------------------|
A|------------------------------|
E|------------------------------|
 |
e|----------------------|
B|----------------------|
G|-----------7-77-7777--|
D|-7-7-777---7-77-7777--|
A|-7-7-777---5-55-5555--|
E|-5-5-555--------------|


Verse - Just figure out the rhythm, it's not hard
e|------------------------------|---------|-------|
B|------------------------------|---------|-------|
G|----9--7--x-7-x-6-x-4-x-6-7-7-|----9--7-|----7--|
D|-7--9--7--x-7-x-6-x-4-x-6-7-7-|-7--9--7-|--9-7--|
A|-7--7--5--x-5-x-4-x-2-x-4-5-5-|-7--7--5-|--9-5--|
E|-5----------------------------|-5-------|--7----|
                                             ^Why I feel this way

Chorus
e|------------|
B|------------|
G|-2--4-----7-|
D|-2--4--5--7-|
A|-0--2--5--5-|
E|-------3----|

Pre verse

e|-9--9--9-9-9--10-1010-101010--7--7--7-7-7--6--6-6--6-6-6--|
B|-10-10-101010-10-1010-101010--7--7--7-7-7--7--7-7--7-7-7--|
G|----------------------------------------------------------|
D|----------------------------------------------------------|
A|----------------------------------------------------------|
E|----------------------------------------------------------|
|
e|----------------------|
B|----------------------|
G|-----------7-77-7777--|
D|-7-7-777---7-77-7777--|
A|-7-7-777---5-55-5555--|
E|-5-5-555--------------|

Solo
e|-------------------------------------------------|
B|-------------------------------------------------|
G|---7--6--76---6-7-6-------7----------------------|
D|-9-7--------7-------7---9-7-------------6h7h6----|
A|-9-5--------------------9-5-5h7-4h5-2h4-------7--|
E|-7----------------------7------------------------|

Chorus with Key change
e|--------------------------------|
B|--------------------------------|
G|-4--6---9--9-x-8-x-6-x-8-9-9----|
D|-4--6-7-9--9-x-8-x-6-x-8-9-9-9--|
A|-2--4-7-7--7-x-6-x-4-x-6-7-7-9--|
E|------5----------------------7--|


2.A still life franchise

Intro -
For this part, just play around with plucking this chord, it's kinda hard to figure out
being played, but it'll probably sound fine no matter what, and it's not too hard to
it out basically.
e|-6--------|
B|-7--------|
G|-8--------|
D|-8--------|
A|----------|
E|----------|

e|-6-6-6-6-----|
B|-7-7-7-7-----|
G|-8-8-8-8-----|
D|-8-8-8-8-----|
A|-------------|
E|-------------|


Verse - Ska Chords
e|-6-6-x-6-x-6-x-6-x-6-x-6-x-6-x-6-x-2-x-2-x-2-x-2-x-2-x-2-x-2-x-2-x---------|
B|-7-7-x-7-x-7-x-7-x-7-x-7-x-7-x-7-x-3-x-3-x-3-x-3-x-2-x-2-x-2-x-2-x---------|
G|-8-8-x-8-x-8-x-8-x-8-x-8-x-8-x-8-x-4-x-4-x-4-x-4-x-3-x-3-x-3-x-3-x---------|
D|---------------------------------------------------------------------------|
A|---------------------------------------------------------------------------|
E|---------------------------------------------------------------------------|

Chorus -
This part, with everything going on along with the distortion, it's hard to get the
 So if you wanna hear the rhythm for the chorus, go here:
http://lessthanjake.textamerica.com/Default.aspx?r=3605202&term=still+life+franchise

e|------------------------------------------|
B|------------------------------------------|
G|-6-6-6666--6-6-6666-----------------------|
D|-6-6-6666--6-6-6666--6-6-6666--6-6-6666---|
A|-4-4-4444--4-4-4444--6-6-6666--6-6-6666---|
E|---------------------4-4-4444--4-4-4444---|


e|-------------------------------------------------------|
B|-------------------------------------------------------|
G|-4-4--4-44-4-44-4-44-4---------------------------------|
D|-4-4--4-44-4-44-4-44-4--44-4-44-4-44-4-44-4------------|
A|-2-2--2-22-2-22-2-22-2--44-4-44-4-44-4-44-4------------|
E|------------------------22-2-22-2-22-2-22-2------------|



Bridge
e|-x-6-x-6-x-6-x-6-x-6-x-6-x-6-x-6-------------------------------|
B|-x-7-x-7-x-7-x-7-x-7-x-7-x-7-x-7-------------------------------|
G|-x-8-x-8-x-8-x-8-x-8-x-8-x-8-x-8--4-4-4444---------------------|
D|----------------------------------4-4-4444--4-4-4444-----------|
A|----------------------------------2-2-2222--4-4-4444-----------|
E|--------------------------------------------2-2-2222-----------|

Outro 0
e|----------------------------------------------|
B|----------------------------------------------|
G|--------------------------------------4-------|
D|-6666666666666666---------------------4--4----|
A|-4444444444444444-6666666666666666----2--4----|
E|------------------4444444444444444-------2----|
P.M.--------------------------------------------|


3.Overrated(everything is)

INTRO/RIFF
e|--------------|
B|--------------|
G|55------------|
D|55-55-5-77-3--|  (x4) On the last time hit   3  four times.
A|33-55-5-77-3--|                              3
E|-- 33-3-55-1--|                              1


VERSE  (Only bass on the first two bars.)
e|-------------------------|
B|-------------------------|
G|55-----------------------|
D|55-55-77-33-----(x2)-----|
A|33-55-77-33--------------|
E|---33-55-11--------------|


PRE-CHORUS
e|---------------------------------|
B|---------------------------------|
G|----------55xx-------------------|
D|77xx-33xx-55xx-55xx-----(x2)-----|  On the last time hit  5  8 times.
A|77xx-33xx-33xx-55xx--------------|                        5
E|55xx-11xx------33xx--------------|                        3


CHORUS
e|--------------------------------------------------------------------------|
B|--------------------------------------------------------------------------|
G|55xx----------------------------------55xx--------------------------------|
D|55xx-55xx-77xx-88xx-----(x3)-----77xx-55xx-5555-3333----------------------|
A|33xx-55xx-77xx-88xx--------------77xx-33xx-5555-3333----------------------|
E|-----33xx-55xx-66xx--------------55xx------3333-1111----------------------|

WO-OH BIT
e|----------------------------------------------------|
B|----------------------------------------------------|
G|55xx----------------55xx----------------------------|
D|55xx-33xx-55xx-66xx-55xx-33xx-55555555-----(x2)-----|
A|33xx-33xx-55xx-66xx-33xx-33xx-55555555--------------|
E|-----11xx-33xx-44xx------11xx-33333333--------------|

BRIDGE
e|--------------------------------------------------|
B|--------------------------------------------------|
G|55555555------------------------------------------|
D|55555555-55555555-33333333-55555555------(x2)-----|
A|33333333-55555555-33333333-55555555---------------|
E|---------33333333-11111111-33333333---------------|


4.Fall Apart


Intro - This is a  little strange..you can figure out the palm muting for yourself
e|--------------|
B|--------------|
G|----------7---|
D|----7-----7---|
A|-5--5--5--5---|
E|-5--5--5--5---|

Verse -
e|------------------------------------------|
B|------------------------------------------|
G|------------------------------------------|
D|---------------------77777777-------------|
A|-----55555555555555--55555555-77777777----|
E|-2h3-33333333333333-----------55555555----|


e|-------------------------------------------|
B|-------------------------------------------|
G|---------------------77777777--------------|
D|-----55555555555555--77777777-77777777-----|
A|-----55555555555555--55555555-77777777-----|
E|-2h3-33333333333333-----------55555555-----|

Chorus
e|--------------------------------------|
B|--------------------------------------|
G|-4-4--4-7-------------7-x-7--7-x-7----|
D|-4-4--4-7-5-5--5-5-7--7-x-7--7-x-7----|
A|-2-2--2-5-5-5--5-5-7--5-x-5--5-x-5----|
E|----------3-3--3-3-5------------------|

e|--------------------------------------|
B|--------------------------------------|
G|-4-4--4-7-------------7-x-7--7-x-7----|
D|-4-4--4-7-5-5--5-5-7--7-x-7--7-x-7----|
A|-2-2--2-5-5-5--5-5-7--5-x-5--4-x-4----|
E|----------3-3--3-3-5------------------|

End of chorus
e|----------------------------|
B|----------------------------|
G|----------------------------|
D|-2-22-222--5-5-7-77---------|
A|-2-22-222--5-5-7-77---------|
E|-0-00-000--3-3-5-55---------|

Solo x 2
e|----------------------------------------------------|
B|----------------------------------------------------|
G|-9-7---7-7-9-11-9-7---7-7-7-12-11-9--7-9h7-9h7------|
D|-----9--------------9-------------------------------|
A|----------------------------------------------------|
E|----------------------------------------------------|

Bridge
e|---------------------------------------------|
B|---------------------------------------------|
G|-7777777777777777----------------------------|
D|-7777777777777777-77777777-55555555----------|
A|-5555555555555555-77777777-55555555----------|
E|------------------55555555-33333333----------|


5.Independence day


Melody
e|----------------------------|
B|----------------------------|
G|-13--9--6-9--9/11--9--6-----|
D|----------------------------|
A|-11--7--4-7--7/-9--7--4-----|
E|----------------------------|

Rhythm
e|--------------------------------------|
B|--------------------------------------|
G|--9-9-9999-99-9999--6-4-2-2-2222------|
D|--9-9-9999-99-9999--6-4-2-2-2222------|
A|--7-7-7777-77-7777--4-2-0-0-0000------|
E|--------------------------------------|

Verse -Rescue Me From Boring times                First time   Second time
e|----------------------------------------------|------------|-------------------------|
B|----------------------------------------------|------------|-------------------------|
G|--6-6-6666-66-6666---------4-44-4444-2-2-2222-|-x-7777777--|-4/7777777-4/7777777-2---|
D|--6-6-6666-66-6666-2-2-222-4-44-4444-2-2-2222-|-x-7777777--|-4/7777777-4/7777777-2---|
A|--4-4-4444-44-4444-2-2-222-2-22-2222-0-0-0000-|-x-5555555--|-2/5555555-2/5555555-0---|
E|-------------------0-0-000--------------------|------------|-------------------------|

Chorus -I'm borderline....
e|---------------------------------------------------------------------------|
B|---------------------------------------------------------------------------|
G|-------------------2-2-2222-6-4-2-------------------4/777777--4/7777777----|
D|-2-2-222-4-44-4444-2-2-2222-6-4-2-2-2-222-4-44-4444-4/777777--4/7777777----|
A|-2-2-222-4-44-4444-0-0-0000-4-2-0-2-2-222-4-44-4444-2/555555--2/5555555----|
E|-0-0-000-2-22-2222----------------0-0-000-2-22-2222------------------------|

Pre-chorus (after 2nd verse) - I try and try and try to remember...
e|--------------------------------------|
B|--------------------------------------|
G|---------7-7-7-77----------7-777777---|
D|-2-2-7-7-7-7-7-77-2-2-7-7--7-777777---|
A|-2-2-7-7-5-5-5-55-2-2-7-7--5-555555---|
E|-0-0-5-5----------0-0-5-5-------------|

Bridge-Lead
e|--------------------------------------------------------------|
B|--12-9-10-9-7-9--12-9-10-9-7-5--12-9-10-9-7-9--2-5-7-9-7-5-2--|
G|--------------------------------------------------------------|
D|--------------------------------------------------------------|
A|--------------------------------------------------------------|
E|--------------------------------------------------------------|

Bridge-Rhythm
e|------------------------------------|
B|------------------------------------|
G|-9-9--x-11-11-11--7-7--x------------|
D|-9-9--x-11-11-11--7-7--x--7-7-7-----|
A|-7-7--x--9--9--9--5-5--x--7-7-7-----|
E|--------------------------5-5-5-----|

Two different rhythm variations here, you can figure it out
e|-------|
B|-------|
G|-----7-|
D|-4-7-7-|
A|-4-7-5-|
E|-2-5---|


6.Don't fall asleep on the subway


intro
-------------------------|-----------|
-------------------------|-----------|
--------------------9-9--|-----------|
--9--7--2--7--9--7--9-9--|--9--7-----|
--9--7--2--7--9--7--7-7--|--9--7-----|
--7--5--0--5--7--5-------|--7--5-----|
		       X4


verse
-------------|-----------------------|
-------------|-----------------------|
--9-9--------|--------------9-9------|
--9-9--9--7--|--2--7--9--7--9-9------|
--7-7--9--7--|--2--7--9--7--7-7------|
-------7--5--|--0--5--7--5-----------|
	   x4

I could hear all the plans we had when the wind hits me just right
and i'm so sick of wanting all the things i'm haunted by
my sympathy goes to the oldest joke that's survived another year
i wonder where i'm going from where i'm at i wonder why i'm still here.


pre chorus

--------------------------|
--------------------------|
-6--9--6------------------|
-6--9--6------------------|
-4--7--4------------------|
--------------------------|
       pm

the writing on the subway walls reminds me why your words don't
console me anymore while i'm lying wide awake on my bedroom floor.

chorus
--------------------------|
--------------------------|
-----------------6-----9--|
--9--7--2--7--9--6--7--9--|
--9--7--2--7--9--4--7--7--|
--7--5--0--5--7-----5-----|
		       X2

i'm the lucky one, i'm getting out of here this is my last chance to disappear.
i'm the lucky one, i'm getting out of here, i think i may freeze on the last days of summertime

Intro

verse

the local papers always opened up to obituaries and engagements
cause i keep track of all the fresh starts and the dying famous
and there's a hate of second-hand smoke underneath the summer stars
along with conversations we had on this subway car.

pre chorus

chorus *2

bridge
-------|-----------------------|
-------|-----------------------|
-6--9--|--7--9-----------------|
-6--9--|--7--9-----------------|
-4--7--|--5--7-----------------|
-------|-----------------------|
     x3

remember when, when you said,
you said take these words and do what you want with them

intro *2

pre chorus

chorus *3

intro *2


7.Landmines and landslides

Intro/Chorus
e|------------------------------------------------|
B|------------------------------------------------|
G|-55555555-77777777----------1010101010101010----|
D|-55555555-77777777-77777777-1010101010101010----|
A|-33333333-55555555-77777777-8-8-8-8-8-8-8-8-----|
E|-------------------55555555---------------------|

Second guitar in intro
e|----------------|
B|----------------|
G|--9-------------|
D|----10---9-10---|
A|----------------|
E|----------------|

Verse
e|-----------------------------------------------------------------------------|
B|-----555---------------------------------------------------------------------|
G|-555-555-5-----777-----------------------------------------------------------|
D|-555-----5-777-777-7777-3--------------------------555555--------------------|
A|-333-----3-777-----7777-3-33333333333333-5555555555555555--------------------|
E|-----------555-----5555-1-11111111111111-3333333333333333--------------------|
                          P.M--------------------------------------------------|
e|-----------------------------------------------------------------------------|
B|-----------------------------------------------------------------------------|
G|-5--------5---5--5-----------------------------------------------------------|
D|-5-555555555555555---7---7--7--7--7--------------------------------55555-----|
A|-3-333333333333333---7-77777777777777--3333333333333333-5555555555555555-----|
E|---------------------5-55555555555555--1111111111111111-3333333333333333-----|
     P.M---- --- --      -- -- -- -- --  -----------------------------|
Pre chorus
e|---------------------------------|
B|---------------------------------|
G|---------------------------------|
D|-7---5---3---7---5---------------|
A|-7---5---3---7---5-33333333------|
E|-5---3---1---5---3-11111111------|
                    P.M------------|
Bridge
  As many times
  As needed       Afterwards
e|---------|-------------|
B|---------|-------------|
G|---------|--10---7-----|
D|-7--5--3-|--10---7-----|
A|-7--5--3-|--8----5-----|
E|-5--3--1-|-------------|

Solo
e|----------------------|
B|--6-5-8---5-6-5-------|
G|--5-5-5-5-------5-----|
D|----------------------|
A|----------------------|
E|----------------------|

8.The rest of my life


Intro:
Eb:-----------------------------------------------------------------|
Bb:-----------------------------------------------------------------|
Gb:-----------------------------------------------------------------| (X2)
Db:-----------------------------------------------------------------|
Ab:-----7-4-7-4---7-4-7-4--------4-5-4-5-4--------------------------|
eb:------------7-----------5-5-7----------5-7-5---------------------|

These are the chords behind the intro, figure out the strumming and timing

      A       E        F#m        D
Eb:--------------------2----------2-----------------------------------|
Bb:---2----------------2----------3-----------------------------------|
Gb:---2-------1--------2----------2-----------------------------------|
Db:---2-------2--------4----------------------------------------------|
Ab:-----------2--------4----------------------------------------------|
eb:--------------------2----------------------------------------------|


Verse: same as intro chords
      A       E        F#m        D
Eb:--------------------2----------2-----------------------------------|
Bb:---2----------------2----------3-----------------------------------|
Gb:---2-------1--------2----------2-----------------------------------|
Db:---2-------2--------4----------------------------------------------|
Ab:-----------2--------4----------------------------------------------|
eb:--------------------2----------------------------------------------|

Chorus:

Eb:-----------------------------------------------------------------|
Bb:-----------------------------------------------------------------|
Gb:---------1-------------7-----------------------------------------|
Db:--7------2------4------7-----------------------------------------|
Ab:--7------2------4------5-----------------------------------------|
eb:--5-------------2------------------------------------------------|

Verse 2: same as verse 1, and intro chords
      A       E        F#m        D
Eb:--------------------2----------2-----------------------------------|
Bb:---2----------------2----------3-----------------------------------|
Gb:---2-------1--------2----------2-----------------------------------|
Db:---2-------2--------4----------------------------------------------|
Ab:-----------2--------4----------------------------------------------|
eb:--------------------2----------------------------------------------|

Chorus:
Eb:-----------------------------------------------------------------|
Bb:-----------------------------------------------------------------|
Gb:---------1-------------7-----------------------------------------|
Db:--7------2------4------7-----------------------------------------|
Ab:--7------2------4------5-----------------------------------------|
eb:--5-------------2------------------------------------------------|

Bridge:
    F#m    Gm   F#m   Gm    F#m    E5?  D5?
Eb:--2-----3-----2-----3-----2-------------------------------------------|
Bb:--2-----3-----2-----3-----2-------------------------------------------|
Gb:--2-----3-----2-----3-----2------9----7-------------------------------|
Db:--4-----5-----4-----5-----4------9----7-------------------------------|
Ab:--4-----5-----4-----5-----4------7----5-------------------------------|
eb:--2-----3-----2-----3-----2-------------------------------------------|


Repeat intro riff, but repeat the second part twice, not the whole thing

Eb:-----------------------------------------------------------------|
Bb:-----------------------------------------------------------------|
Gb:-----------------------------------------------------------------|
Db:------------------------------------(X2)-------------------------|
Ab:-----7-4-7-4---7-4-7-4--------4-5-4-5-4--------------------------|
eb:------------7----------(-5-5-7----------5-7-5-)------------------|

One final chorus:
Eb:-----------------------------------------------------------------|
Bb:-----------------------------------------------------------------|
Gb:---------1-------------7-----------------------------------------|
Db:--7------2------4------7-----------------------------------------|
Ab:--7------2------4------5-----------------------------------------|
eb:--5-------------2------------------------------------------------|

Outro: Same as intro, intro riff with backing chords
Eb:-----------------------------------------------------------------|
Bb:-----------------------------------------------------------------|
Gb:-----------------------------------------------------------------| (X2)
Db:-----------------------------------------------------------------|
Ab:-----7-4-7-4---7-4-7-4--------4-5-4-5-4--------------------------|
eb:------------7-----------5-5-7----------5-7-5---------------------|


      A       E        F#m        D
Eb:--------------------2----------2-----------------------------------|
Bb:---2----------------2----------3-----------------------------------|
Gb:---2-------1--------2----------2-----------------------------------|
Db:---2-------2--------4----------------------------------------------|
Ab:-----------2--------4----------------------------------------------|
eb:--------------------2----------------------------------------------|


9.Mostly memories


Intro

E|----------------------------------------------------------------------|
A|----------------------------------------------------------------------|
D|-7777777777777777------------------4444444444444444-5555555555555555--|
G|-7777777777777777-5555555555555555-4444444444444444-5555555555555555--|
B|-5555555555555555-5555555555555555-2222222222222222-3333333333333333--|
e|------------------3333333333333333------------------------------------|


Verse

E|----------------------------------------|
A|----------------------------------------|
D|------7~---------------------------5~---|
G|----7~---------5~--------2~-----5~------|
B|--5~--------5~--------2~-----3~---------|
e|---------3~--------0~-------------------|


E|-----------------------------------------------------|
A|-----------------------------------------------------|
D|--------7-7--7-------------------------------5-5--5--|
G|------7---7--7-------5-5-5------2--2--2----5---5--5--|
B|----5-----5--5-----5---5-5----2----2--2--3-----3--3--|
e|-----------------3-----3-3--0------0--0--------------|

Pre-chorus

E|--------------------------|
A|--------------------------|
D|-------------------5------|
G|-7-7-7777-7-7-777--5-5----|
B|-7-7-7777-7-7-777--3-5----|
e|-5-5-5555-5-5-555----3----|

Chorus

E|-----------------------------------------------------------------------|
A|-----------------------------------------------------------------------|
D|-7-7-7777-77--7777-7-7-7777-7-7-7777--4-4-4444-4-4-4444--55-5----------|
G|-7-7-7777-7-7-7777-7-7-7777-7-7-7777--4-4-4444-4-4-4444--55-5--55-5----|
B|-5-5-5555-5-5-5555-4-4-4444-4-4-4444--2-2-2222-2-2-2222--33-3--55-5----|
e|---------------------------------------------------------------33-3----|

On the second half of the chorus, theres an incredibly low guitar playing this (same
as lead guitar)
I'd write out the whole thing, but it's so impossible to hear that it doesn't matter.

E|---------|
A|---------|
D|-11-12---|
G|---------|
B|-9--10---|
e|---------|


Bridge

E|---------------------------------------------------------------|
A|---------------------------------------------------------------|
D|-44----444----------------------77----777----------------------|
G|-44-44-444-44-4-55----555-------77-77-777-77-7-77----777-------|
B|-22-22-222-22-2-55-55-555-55-5--55-55-555-55-5-77-77-777-77-7--|
e|----------------33-33-333-33-3-----------------55-55-555-55-5--|
      P.m    ---     --     -- -    --      ---     --     -- -|


10.Let her go


Intro is just a A# powerchord

e|--6-6-x-6-6-6--x-6-6-6-x-6-6-6-x-4-4-x-4-4-4-x-3-3-x-3-3-3-x--|
B|--6-6-x-6-6-6--x-6-6-6-x-6-6-6-x-4-4-x-4-4-4-x-4-4-x-4-4-4-x--|
G|--7-7-x-7-7-7--x-7-7-7-x-7-7-7-x-5-5-x-5-5-5-x-5-5-x-5-5-5-x--|
D|--------------------------------------------------------------|
A|--------------------------------------------------------------|
E|--------------------------------------------------------------|

Prechorus
e|-----------------------------------------|
B|-----------------------------------------|
G|-5-555-5555--88-8-8-5-555-5555--88-8-8---|
D|-5-555-5555--88-8-8-5-555-5555--88-8-8---|
A|-3-333-3333--66-6-6-3-333-3333--66-6-6---|
E|-----------------------------------------|

Chorus
e|---------------------------------|
B|---------------------------------|
G|-333333-----------------8-88888--|
D|-333333-------6-66666---8-88888--|
A|-111111etc.---6-66666---6-66666--|
E|--------------4-44444------------|

Chorus part 2
e|---------|
B|---------|
G|-3-5---8-|
D|-3-5-6-8-|
A|-1-3-6-6-|
E|-----4---|

Bridge
e|----------------------|
B|----------------------|
G|-3-5-8-10-3-5-8-------|
D|-3-5-8-10-3-5-8-8-----|
A|-1-3-6-8--1-3-6-8-----|
E|----------------6-----|

Lead break
e|------------------------------|
B|------------------------------|
G|----8-7-5-3------10--10-10-8--|
D|-10----------10---------------|
A|----6-5-3-1------8---8--8--6--|
E|-8-----------8----------------|

11.Hopeless case


Intro/Verse-
e|-------------------------|
B|-------------------------|
G|--4---5---7---4----------|
D|----5---5---5---5--------|
A|-------------------------|
E|-------------------------|
  P.M.---------------------|
There's sometimes a variation that goes like this

e|------------------------------|
B|--------------5---------------|
G|--4---5---4-------5---4---5---|
D|----5---5---5---5---5---5---5-|
A|------------------------------|
E|------------------------------|

Eventually during the verse you hear
e|-----------------------------------------------------------------------------|
B|-----------------------------------------------------------------------------|
G|-----------------------------------------------------------------------------|
D|-----------------------------------22222222222222222222-55555555555555555----|
A|-5555555555555555-2222222222222222-00000000000000000000-33333333333333333----|
E|-3333333333333333-0000000000000000-------------------------------------------|
  P.M.-------------------------------------------------------------------------|

And than towards the end of the chorus you'll hear
B|-8-|
played a few times


Chorus-
Three guitars in the chorus, acoustic and an electric playing this
e|---------------------------------------------------------------------------|
B|---------------------------------------------------------------------------|
G|-------------------------------------2-22-222-2-22-222-5-55-555-5-55-555---|
D|-5-55-555-5-55-555-2-22-222-2-22-222-2-22-222-2-22-222-5-55-555-5-55-555---|
A|-5-55-555-5-55-555-2-22-222-2-22-222-0-00-000-0-00-000-3-33-333-3-33-333---|
E|-3-33-333-3-33-333-0-00-000-0-00-000---------------------------------------|

Than the third guitar thats really low switching between these two chords
e|-7777777777777777-88888888888888888-----|
B|-8888888888888888-88888888888888888-----|
G|----------------------------------------|
D|----------------------------------------|
A|----------------------------------------|
E|----------------------------------------|

Bridge!-x2
e|-----------------------------|
B|-----------------------------|
G|-------------------------5---|
D|-2----2-2-2-5----5-5-----5---|
A|-2-22-2-2-2-5-55-5-5-----3---|
E|-0-00-0-0-0-3-33-3-3---------|
    P.M-       P.M-

End with-
e|-------------------|
B|-------------------|
G|-5-5-5-5-----------|
D|-5-5-5-5----5------|
A|-3-3-3-3----5------|
E|------------3------|

12.P.S. shock the world


Intro/Verse ( Ska chords, figure out rhythm)
e--10-10--3-3--6-6--6-6---------------------------------|
B--11-11--4-4--8-8--6-6---------------------------------|
G--12-12--5-5--8-8--7-7---------------------------------|
D--12-12--5-5--8-8--8-8---------------------------------|
A-------------------------------------------------------|
E-------------------------------------------------------|

Pre-Chorus- "It's just my self-destructiveness...."
e--6-6-6-6--4-4-4-4--6-6-6-6----------------------------|
B--8-8-8-8--4-4-4-4--6-6-6-6----------------------------|
G--8-8-8-8--5-5-5-5--7-7-7-7----------------------------|
D--8-8-8-8--6-6-6-6--8-8-8-8----------------------------|
A-------------------------------------------------------|
E-------------------------------------------------------|

"And it's still a mystery...."
e--6-6-6-6-6-6-6----------------------------------------|
B--8-8-8-8-8-8-8----------------------------------------|
G--8-8-8-8-8-8-8----------------------------------------|
D--8-8-8-8-8-8-8--6-6-6-6--8-8-8-8----------------------|
A-----------------6-6-6-6--8-8-8-8----------------------|
E-----------------4-4-4-4--6-6-6-6----------------------|

Chorus
e-------------------------------------------------------|
B-------------------------------------------------------|
G--8-8-8-8-----------5-5--------------------------------|
D--8-8-8-8--5-5-5-5--5-5--3-3--6-6-6-6------------------|
A--6-6-6-6--5-5-5-5--3-3--3-3--6-6-6-6------------------|
E-----------3-3-3-3-------1-1--4-4-4-4------------------|

Breakdown (Palm Mute)
e--------------------------------------------------------|
B--------------------------------------------------------|
G-----------5-5-5-5--8-8-8-8-----------------------------|
D--5-5-5-5--5-5-5-5--8-8-8-8--8-8-8-8-------x4-----------|
A--5-5-5-5--3-3-3-3--6-6-6-6--8-8-8-8--------------------|
E--3-3-3-3--------------------6-6-6-6--------------------|


Pre Chorus 2-"It's just my self-destructiveness..."
Figure out timing.
e-------------------------------------------------------|
B-------------------------------------------------------|
G--8-8--------------------------------------------------|
D--8-8--8-8--9-9--10-10--8-8--6-6--8-8------------------|
A--6-6--8-8--9-9--10-10--8-8--6-6--8-8------------------|
E-------6-6--7-7---8--8--6-6--4-4--6-6------------------|


There is a second guitar in the song during the chorus and breakdown but it's a little
to hear during parts of the song so I didn't bother tabbing it.

Order:
Intro/Verse:x6
Pre-Chorus:x1
Chorus:x2
Intro/Verse:x6
Pre-Chorus:x1
Chorus:x2
Breakdown:4
Pre-Chorus 2:x1
Chorus:8

Well that's it!
Add me on:
www.myspace.com/gazguitarkid438709
or
guitarkidgaz438709.bebo.com
Cheers!
Gaz
comments
We did not receive enough feedback on this tab! Please rate:
print report bad tab
1 2 3 4 5
I want to post or [tab]
guest
You may want to rate the tab now too:
select rating
Please do not post tabs as comments. Select "correction" instead!