Oops, an error
Loading. Please wait.

Losing Streak Bass Tab

535 views 3 this week
no commentswrite comment
1 2 3 4 5
excellent!
x 1
Autoscroll
+/-
esc
set tempo
stop
Contributor
WARNING: You are trying to view
                                    content from Ultimate-Guitar.com
                                    in an unauthorized application,
                                    which is prohibited.

                                    Please use an official Ultimate
                                    Guitar Tabs application for iPhone,
                                    iPad or Android to access legitimate
                                    chords, guitar, bass, and drum tabs
                                    from Ultimate-Guitar.com database.

                                    Type "ultimate guitar tabs" in Apple
                                    App Store's or Android Market's
                                    search to find the application.
LESS THAN JAKE - AUTOMATIC

G|--------------------------------------|
D|-- guitar ----------------------------|
A|--------------------------------------|
E|------------2-2-2-2-2-2-2-3-3-3-5-5-5-|

G|---------------------------------|
D|---------------------------------|
A|-5-5-5-5---------2-2-2-2---------|
E|---------3-3-3-3---------3-3-5-5-|

G|------------------------------------------------|
D|-----------------4-4-4-4-4-4-4-4-5-5--5-5-5-5-4-|
A|-5-5-5-5----------------------------------------|
E|---------3-3-3-3--------------------------------|

G|-----------------------------------------------------------------------|
D|---4---4-44---4----------7---6-----5-5-4--4h5p4----------5h7-5-4h5p4---|
A|-5---5------5---7-7--7--------------------------5---4-5--------------5-|
E|-----------------------5---4----3-----------------5--------------------|

G|----------------------------------------------------------------|
D|---4---4-44---4----------7---6-----5-5-4--4h5p4---------------4-|
A|-5---5------5---7-7--7------------------------------4-5-5-5-7---|
E|-----------------------5---4----3---------------5-5-------------|

G|---------------------------------|
D|---------------------------------|
A|-5-5-5-5---------2-2-2-2---------|
E|---------3-3-3-3---------3-3-5-5-|

G|------------------------------------------------|
D|-----------------4-4-4-4-4-4-4-4-5-5--5-5-5-5-4-|
A|-5-5-5-5----------------------------------------|
E|---------3-3-3-3--------------------------------|

G|---------------------------------|
D|---------------------------------|
A|-5-5-5-5---------2-2-2-2---------|
E|---------3-3-3-3---------3-3-5-5-|

G|---------------------------------|
D|-----------------4-----5----4----|
A|-5-5-5-5-------------------------|
E|---------3-3-3-3-----------------|

G|-----------------------------------------------------------------------|
D|---4---4-44---4----------7---6-----5-5-4--4h5p4----------5h7-5-4h5p4---|
A|-5---5------5---7-7--7--------------------------5---4-5--------------5-|
E|-----------------------5---4----3-----------------5--------------------|

G|----------------------------------------------------------------|
D|---4---4-44---4----------7---6-----5-5-4--4h5p4---------------4-|
A|-5---5------5---7-7--7------------------------------4-5-5-5-7---|
E|-----------------------5---4----3---------------5-5-------------|

G|---------------------------------|
D|---------------------------------|
A|-5-5-5-5---------2-2-2-2---------|
E|---------3-3-3-3---------3-3-5-5-|

G|------------------------------------------------|
D|-----------------4-4-4-4-4-4-4-4-5-5--5-5-5-5-4-|
A|-5-5-5-5----------------------------------------|
E|---------3-3-3-3--------------------------------|

G|---------------------------------|
D|---------------------------------|
A|-5-5-5-5---------2-2-2-2---------|
E|---------3-3-3-3---------3-3-5-5-|

G|--------------------------------------------|
D|--------------------------------------------|
A|-5-5-5-5---------------------4--5-----------|
E|---------3-3-3-3-2--3--5--3-----------------|

G|------------------------------------------------------------9---|
D|----------------------------------------------------------------|
A|-----6------4----4--6-7-7-7-6-----6-----------4-4-4-4-6-7-7---7-|
E|-7-7---7--5---5----------------7-----7--5-5-4-------------------|

G|-------------------------------4---|
D|------------7-6-4------------------|
A|---6---6----------4-4-44-6-7-7---7-|
E|-7---7---5-------------------------|

G|-----------------------------------|
D|------------7-6-4------------------|
A|---6---6----------4-4-44-6-7-7-----|
E|-7---7---5---------------------19\-|

G|-----------------------------------------------------------------------|
D|---4---4-44---4----------7---6-----5-5-4--4h5p4----------5h7-5-4h5p4---|
A|-5---5------5---7-7--7--------------------------5---4-5--------------5-|
E|-----------------------5---4----3-----------------5--------------------|

G|----------------------------------------------------------------|
D|---4---4-44---4----------7---6-----5-5-4--4h5p4---------------4-|
A|-5---5------5---7-7--7------------------------------4-5-5-5-7---|
E|-----------------------5---4----3---------------5-5-------------|

G|---------------------------------|
D|---------------------------------|
A|-7-7-7-7---------4-4-4-4---------|
E|---------5-5-5-5---------5-5-7-7-|

G|--------------------------------|
D|--------------------------------|
A|-7-7-7-7------------------------|
E|---------5-5-5-5-4--2--4--5--7--|

G|---------------------------------|
D|---------------------------------|
A|-7-7-7-7---------4-4-4-4---------|
E|---------5-5-5-5---------5-5-7-7-|

G|--------------------------------|
D|--------------------------------|
A|-7-7-7-7--------------------7---|
E|---------5-5-5-5-4---5--7-------|

LESS THAN JAKE - HAPPYMAN

G|----------------------------------|
D|----------------------------------|
A|-3------6--------3------8----6----|
E|----------------------------------|

G|-------------------------------------|
D|-------8-8-6-5---6-6-6-6-5-----------|
A|---5-8---------8-----------8---6-6-8-|
E|-6-----------------------------------|

G|--------------------------|
D|-------8-8-6-5---6-5------|
A|---5-8---------8-----6----|
E|-6------------------------|

G|-------------------------------------|
D|-----8-8-8-6-5-6-6-6-6-6-5-----------|
A|---6-----------------------8---6-6-8-|
E|-6-----------------------------------|

G|-----------------5-5-------------------|
D|-----8-8-8-6-5-6-----8-6---5-6p5-6p5---|
A|---6---------------------8-----------6-|
E|-6-------------------------------------|

G|-----------------------------------|
D|-----8-8-8-6-5-6-6-5-5h6-5-6-5-----|
A|---6---------------------------6-5-|
E|-6---------------------------------|

G|-----------------------------------|
D|-----8-8-8-6-5-6-6-6-5-------------|
A|---6-------------------8-6---------|
E|-6-------------------------6-6-6-6-|

G|----------------------------------|
D|-----10-8-----5h6p5---------------|
A|--------------------6-------------|
E|-8-8------6-6---------6-6-6-6-0-2-|

G|-----------------------------|
D|-------------8-6-5-----------|
A|-------6-6-6-------8-6-5-----|
E|-4-4-4-------------------8-6-|

G|------------------------------|
D|-----10-8-----5h6p5-----------|
A|--------------------6---------|
E|-8-8------6-6---------6-6-6-6-|

G|-------------------------------------|
D|-2-4-6-6-6-6-6-6-6-6-----------------|
A|---------------------6-6-6-6-6-6-6-6-|
E|-------------------------------------|

G|-------------------------------------|
D|-------8-8-6-5---6-6-6-6-5-----------|
A|---5-8---------8-----------8---6-6-8-|
E|-6-----------------------------------|

G|--------------------------|
D|-------8-8-6-5---6-5------|
A|---5-8---------8-----6----|
E|-6------------------------|

G|-------------------------------------|
D|-----8-8-8-6-5-6-6-6-6-6-5-----------|
A|---6-----------------------8---6-6-8-|
E|-6-----------------------------------|

G|-----------------5-5-------------------|
D|-----8-8-8-6-5-6-----8-6---5-6p5-6p5---|
A|---6---------------------8-----------6-|
E|-6-------------------------------------|

G|-----------------------------------|
D|-----8-8-8-6-5-6-6-5-5h6-5-6-5-----|
A|---6---------------------------6-5-|
E|-6---------------------------------|

G|-----------------------------------|
D|-----8-8-8-6-5-6-6-6-5-------------|
A|---6-------------------8-6---------|
E|-6-------------------------6-6-6-6-|

G|----------------------------------|
D|-----10-8-----5h6p5---------------|
A|--------------------6-------------|
E|-8-8------6-6---------6-6-6-6-0-2-|

G|-----------------------------|
D|-------------8-6-5-----------|
A|-------6-6-6-------8-6-5-----|
E|-4-4-4-------------------8-6-|

G|----------------------------------|
D|-----10-8-----5h6p5---------------|
A|--------------------6-------------|
E|-8-8------6-6---------6-6-6-6-0-2-|

G|--------------------------------------|
D|-6-6-6-6------------------------------|
A|---------6-6-6-6----------------------|
E|-----------------6-6-6-6-6-6-6-6-0-2--|

G|---------------------------------|
D|---------------------------------|
A|-------6-6-6---------------------|
E|-4-4-4-------6-6-6-6-6-6-6-6-0-2-|

G|---------------------------------|
D|-6-6-6-6-6-6-6-6-----------------|
A|-----------------6-6-6-6-6-6-6-6-|
E|---------------------------------|

G|-------------------------------|
D|-------------------------------|
A|---------8-8-8-8---------6-5---|
E|-6-6-6-6---------8-8-8-8-----8-|

G|--------------------------------|
D|--------------------------------|
A|---------8-8-8-8--------6-6-6-5-|
E|-6-6-6-6---------8-8--8---------|

G|--------------------------------------|
D|-----------10-8-7-----------5h6p5-----|
A|-------8-8--------------6-6-------6p5-|
E|-6-6-6------------8-8-8---------------|

G|----------------------------|
D|----------------------------|
A|---------8-8-8-8------8-----|
E|-6-6-6-6---------8----------|

G|-----------------------------------|
D|-----8-8-8-6-5-6-6-6-6-5-----------|
A|---6---------------------8---6-6-8-|
E|-6---------------------------------|

G|-----------------5-5-------------|
D|-----8-8-8-6-5-6-----8-6---------|
A|---6---------------------6-6h8p6-|
E|-6-------------------------------|

G|---------------------------------|
D|-----8-8-8-6-5-6-6-5h6-5-6-5-----|
A|---6-------------------------8-6-|
E|-6-------------------------------|


G|---------------------------------------|
D|-----8-8-8-6-5-6-6-6-5-6p5-------------|
A|---6-----------------------6-8-6-5-6---|
E|-6-----------------------------------6-|

LESS THAN JAKE - 9th AT PINE

guitar on It's own

G|-----------------|
D|-----------------|
A|---------6-6-6-6-|
E|-3-3-3-3---------|

G|---------------------------------|
D|---------------------------------|
A|-----------------6-6-5-3-----3-3-| 1,3
E|-3-3-3-5-6-6-6-6---------6-6-----|

G|---------------------------------|
D|---------------------------8-----|
A|-----------------6-6-5-3---------| 2,4
E|-3-3-3-5-6-6-6-6---------6---5-5-|

G|-------------------------------|
D|-------------------5-6-6-6-5---|
A|-----5-------5---6-------------| 1,3
E|-6-6---6-6-6---6-------------6-|

G|-------------------------------|
D|-----------------5---6-6-6-5---|
A|---5-6-8-6-5-6-6---6---------6-| 2
E|-6-----------------------------|

G|------------------------------|
D|------------------------------|
A|---5------5-----------6-6-6-6-| 4
E|-6---6--6---6-3-3-3-3---------|

repeat all of the above, but instead of last bar, play:

G|-------------------------------|
D|-----------------5---6-6-6-5---|
A|---5-6-8-6-5-6-6---6---------6-|
E|-6-----------------------------|

G|---------------------------|
D|---------------------------|
A|---------------------------|
E|-6-------------------------|

G|--------------------- x2 ---------------------------|
D|----------------------------------------------------|
A|-----------6-6-6----------------------3-3-3-3-6-6-5-|
E|-6-6-6-4-4-------4-4--6-6-6-6-3-3-3-3---------------|

G|--------------------- x2 --------------------|
D|---------------------------------------------|
A|-----------6-6-6-----------------------6-6-6-|
E|-6-6-6-4-4-------4-4-6-6-6-5-5-5-3-3-3-------|

G|---------------------------------|
D|---------------------------------|
A|-------------------------6-6-6-6-|
E|-6-6-6-6-5-5-5-5-3-3-3-3---------|

G|-------------------------------------------------|
D|-------------------------------------------------|
A|-------------------------------------------------|
E|-6-6-6-6-5-5-5-5-3-3-3-3-3-3-3-3-6-6-6-6-6-6-6-6-|

G|---------------------------|
D|---------------------------|
A|---------------------------|
E|-6-------------------------|

LESS THAN JAKE - SUGAR IN YOUR GASTANK

G|-------------------------------------------------|
D|-------------------------------------------------|
A|-------------------------------------7-7-7-7-6-7-|
E|-7-7-7-7-7-7-7-7-7-7-7-7-2-2-2-2-2-2-------------|

G|-----------------------------------------|
D|---------------9-------------------------|
A|-----9-------9-----------------7-7-7-7-6-|
E|-7-7---7-7-7-----7-2-2-2-2-2-2-----------|

G|-------------------------------------------|
D|-----------------6-9-----6-9---8-11---8-11-|
A|---9------6-9--7-----7-7-----9------9------|
E|-7---7--7----------------------------------|

G|----------------------------------------------------|
D|-----6-7h9-7-6--9-------9---6-9---6-9---8-11---8-11-|
A|-7-7--------------7-6-7---7-----7-----9------9------|
E|----------------------------------------------------|

G|---------|
D|---------|
A|-7-7-7-7-|
E|---------|

G|---------------------------------|
D|---------------------------------|
A|---------7-7-7-7-9-9-9-9-7-7-6-7-|
E|-7-7-7-7-------------------------|

G|------------------------------------------|
D|-----------------------11-----9-----------|
A|---------7-7-7-6-7-9-9----7-7-------6-7-8-|
E|-7-7-7-7------------------------7-7-------|

G|-----------------------------------------------------------|
D|-----------------------------------------------------------|
A|-9-9-9-9-9-9-9-9-9-9-9-9-9-9-9-9-9-9-7-7-6-6-----7-7-7-6---|
E|---------------------------------------------9-9---------7-|

G|-------------------------------------------|
D|-----------------6-9-----6-9---8-11---8-11-|
A|---9------6-9--7-----7-7-----9------9------|
E|-7---7--7----------------------------------|

G|----------------------------------------------------|
D|-----6-7h9-7-6--9-------9---6-9---6-9---8-11---8-11-|
A|-7-7--------------7-6-7---7-----7-----9------9------|
E|----------------------------------------------------|

G|---------|
D|---------|
A|-7-7-7-7-|
E|---------|

G|---------------------------------|
D|---------------------------------|
A|---------7-7-7-7-9-9-9-9-7-7-6-7-|
E|-7-7-7-7-------------------------|

G|------------------------------------------|
D|-----------------------11-----9-----------|
A|---------7-7-7-6-7-9-9----7-7-------6-7-8-|
E|-7-7-7-7------------------------7-7-------|

G|------------------------------|
D|-----11-----9-----------------|
A|-9-9----7-7-------------6-7-8-| x3
E|--------------7-7-7-7-7-------|

G|---------------------------------------------------------------|
D|---------------------------------------------------------------|
A|-7-7-7-7-7-7-7-7-7-7-7-7-7-7-6-6-9-9-9-9-9-9-9-9-9-9-7-7-6-6---|
E|-------------------------------------------------------------9-|

G|---------------|
D|----4*--7*-----|
A|------------7*-| x2
E|-7*------------|

* = play each note 16 times

G|-----------------------------------------------------------------------|
D|---------9-8-9-8---8-9---8-8h9p8-7-7-6-6---------9-9-11-11-13-13-14-14-|
A|-----------------9-----9-----------------9-9-7-7-----------------------|
E|-7-7-7-7---------------------------------------------------------------|

G|---------------------------------------------------------|
D|-4-4-4-4-4-4-4------------4-4-4-4------------------------|
A|---------------------------------------------7-7-7-7-7-7-|
E|---------------2-2-2-2-2-2-------5-5-5-5-5-5-------------|

G|---------|
D|---------|
A|-7-7-7-7-|
E|---------|

G|---------------------------------|
D|---------------------------------|
A|---------7-7-7-7-9-9-9-9-7-7-6-7-|
E|-7-7-7-7-------------------------|

G|------------------------------------------|
D|-----------------------11-----9-----------|
A|---------7-7-7-6-7-9-9----7-7-------6-7-8-|
E|-7-7-7-7------------------------7-7-------|

G|------------------------------|
D|-----11-----9-----------------|
A|-9-9----7-7-------------6-7-8-| x2
E|--------------7-7-7-7-7-------|

G|----------------------|
D|-----11-----9---------|
A|-9-9----7-7-----------| 
E|--------------7-7-7-7-|

LESS THAN JAKE - SHINDO

Guitar on It's own x3

G|-----------------------------------------------------------------|
D|-----------------------------------------------------------------|
A|-3-3-3-3-3-3-3/5-------------------------------------------------| 
E|-----------------3-3-3-3-3-3-3/5-6-6-6-6-6-6-6-6-1-1-1-1-1-1-1-1-|

G|---------------------|
D|---------------------|
A|-3-3-3-3-3-3-3-3-3-3-|
E|---------------------|

G|------------------------------------------------|
D|------------------------------------------------|
A|-------------------------3-3-3-2-2-2-0-0-0------|
E|-3-3-3-3-3-3-1-1-1-1-1-1-------------------1-1-1|

G|-------------------------------------------------|
D|-------------------3-5-3-------------------3-3-3-|
A|-------------------------3-3-3-2-2-2-0-0-0-------|
E|-3-3-3-3-3-3-1-1-1-------------------------------|

G|---------------------2-------------|
D|------------5-3----3---3-------2---|
A|----3------------5-------1-0-3---3-|
E|--1---1-3-3------------------------|

G|----------------------3-2-----------|
D|-----3-3-----5-3----3-----------3-2-|
A|------------------5-------1-0-3-----|
E|-1-1-----3-3------------------------|

G|---------------------------------2-------------|
D|-3-3-3-3-3-3-5-5-3-3-2-2-2-0---3---3-------2---|
A|-----------------------------5-----------3---3-|
E|-----------------------------------------------|

G|---------------------------------------|
D|-------------------------------------3-|
A|---------------------------------------|
E|-1-1-1-1-1-1-1-1-1-1-1-1-1-1-1-1-1-1---|

----------------------------------------------------

G|---------------------------------------------|
D|-----------------------------------3-3-2-3-2-|
A|-3-3-3-3-3-3-------3-2-1-1-1-1-1-1-----------|
E|-------------3-3-3---------------------------|

G|-------------------------------------------------|
D|-------------------------------------------------|
A|-3-3-3-3-3-3-2-2-2-2-2-2-1-1-1-1-1-1-------------| 
E|-------------------------------------1-1-1-1-1-1-|

play section x2
----------------------------------------------------

G|---------------------|
D|---------------------|
A|-3-3-3-3-3-3-3-3-3-3-|
E|---------------------|

G|-------------------------------------------|
D|-----5---5-----3-2-2h3-----2---2h3-2-2-0-2-|
A|-----------------------3-3---3-------------|
E|-3-3---3---1-1-----------------------------|

G|---------------------------------------5-5-4-4-2-2-----|
D|-----5---5-----3-2-2h3-----2-2-3-3-5-5-------------5-5-|
A|-----------------------3-3-----------------------------|
E|-3-3---3---1-1-----------------------------------------|


G|---------------------2-------------|
D|------------5-3----3---3-------2---|
A|----3------------5-------1-0-3---3-|
E|--1---1-3-3------------------------|

G|----------------------3-2-----------|
D|-----3-3-----5-3----3-----------3-2-|
A|------------------5-------1-0-3-----|
E|-1-1-----3-3------------------------|

G|---------------------------------2-------------|
D|-3-3-3-3-3-3-5-5-3-3-2-2-2-0---3---3-------2---|
A|-----------------------------5-----------3---3-|
E|-----------------------------------------------|

G|---------------------------------------|
D|-------------------------------------3-|
A|---------------------------------------|
E|-1-1-1-1-1-1-1-1-1-1-1-1-1-1-1-1-1-1---|

----------------------------------------------------

G|---------------------------------------------|
D|-----------------------------------3-3-2-3-2-|
A|-3-3-3-3-3-3-------3-2-1-1-1-1-1-1-----------|
E|-------------3-3-3---------------------------|

G|-------------------------------------------------|
D|-------------------------------------------------|
A|-3-3-3-3-3-3-2-2-2-2-2-2-1-1-1-1-1-1-------------| 
E|-------------------------------------1-1-1-1-1-1-|

play section x2
----------------------------------------------------

G|-------------------------|
D|-------------------------|
A|-----------------3-1-2-3-|
E|-3-3-3-3-1-1-1-1---------|

LESS THAN JAKE - 107

G|-------------------------|
D|-------------------------|
A|-3-3-3-3-----------------|
E|---------0-0-0-0-3-3-3-3-|

G|-------------2h5p2-----------|
D|---4-7---5---------0-5-4-5-4-|
A|-5-----3---2-----------------|
E|-----------------------------|

G|-------------2h5-5-5-5-4-2-|
D|---4-7---5-----------------|
A|-5-----3---2---------------|
E|---------------------------|

G|-------------2h5p2-----------|
D|---4-7---5---------0-5-4-5-4-|
A|-5-----3---2-----------------|
E|-----------------------------|

G|-----------------------------|
D|---4-7---5-0h2-5-4-2---------|
A|-5-----3-------------5-5-5-5-|
E|-----------------------------|

G|-----------------------------------------------------------|
D|---3-2---------3-2-----------------------------------------|
A|-------5-3-5-------3-3-5-5-5-5-5-5-3-3-3-3-----------------|
E|-3-----------3-----------------------------1-1-1-1-3-3-3-3-|

G|-----------------------------------------------------------|
D|---3-2---------3-2---------------------------2-0-2h3-3-3-2-|
A|-------5-3-5-------3-3-5-5-5-5-5-5-3-3-3-3-----------------|
E|-3-----------3-----------------------------3---------------|

G|-------------2h5p2-----------|
D|---4-7---5---------0-5-4-5-4-|
A|-5-----3---2-----------------|
E|-----------------------------|

G|-------------2h5-5-5-5-4-2-|
D|---4-7---5-----------------|
A|-5-----3---2---------------|
E|---------------------------|

G|-------------2h5p2-----------|
D|---4-7---5---------0-5-4-5-4-|
A|-5-----3---2-----------------|
E|-----------------------------|

G|-----------------------------|
D|---4-7---5-0h2-5-4-2---------|
A|-5-----3-------------5-5-5-5-|
E|-----------------------------|

G|-------------------------------------|
D|-----------------------------6h9p6---|
A|-3-3-3-3---------5-5-5-5-7-7-------7-|
E|---------3-3-3-3---------------------|

G|---------------------------------|
D|-------------------4-5-7-7-5-4---|
A|-3-3-3-3---------5-------------5-|
E|---------3-3-3-3-----------------|

G|-------------------------------------|
D|-----------------------------6h9p6---|
A|-3-3-3-3---------5-5-5-5-7-7-------7-|
E|---------3-3-3-3---------------------|

G|---------------------------------------|
D|---------------------------------------|
A|-3-3-3-3---------3-3-3-3-3-3-3-3-3-5---|
E|---------3-3-3-3---------------------3-|

G|-------------------------------------------------------------|
D|---3-2---------3-2-------------------------------------------|
A|-------5-3-5-------2-2-5-5-5-5-5-5-3-3-3-3-----------2h3p2---| x2
E|-3-----------3-----------------------------1-1-1-1-3-------3-|

G|------------------------------------------------------------|
D|------------------------------------------------------------|
A|-5-5-3-3----------2h3p2---5-5-5-5-3-3-3-3-----------------|
E|---------1--1-3-3-------3-----------------1-1-1-1-3-3-3-3-|

G|--------------------------|
D|--------------------------|
A|----------------3-3-2h3p2-|
E|-3--3-0--0-5--5-----------|

G|---------------------------|
D|-------------7-5-4---------|
A|-------------------3-3-3-2-|
E|-3--3-0--0-5---------------|

G|--------------------------|
D|--------------------------|
A|----------------3-3-2h3p2-|
E|-3--3-0--0-5--5-----------|

G|----------------------|
D|----------------------|
A|----------------3-3-2-|
E|-3--3-0--0-5--5-------|

G|-------------------------------------|
D|-----------------------------6h9p6---|
A|-3-3-3-3---------5-5-5-5-7-7-------7-|
E|---------3-3-3-3---------------------|

G|---------------------------------|
D|-------------------4-5-7-7-5-4---|
A|-3-3-3-3---------5-------------5-|
E|---------3-3-3-3-----------------|

G|-------------------------------------|
D|-----------------------------6h9p6---|
A|-3-3-3-3---------5-5-5-5-7-7-------7-|
E|---------3-3-3-3---------------------|

G|---------------------------------------|
D|---------------------------------------|
A|-3-3-3-3---------3-3-3-3-3-3-3-3-3-5---|
E|---------3-3-3-3---------------------3-|

G|--------------------------------|
D|--------------------------5-3---|
A|-----2------------------3-----3-|
E|-3-3----1-1-1-0-3/5-5-5---------|

G|--------------------------------|
D|----------------5-5-3-----------|
A|-----2----------------5-5-5-3-5-|
E|-3-3----1-1-1-0-----------------|

G|---------------------------------------|
D|-------2-3-3-3-2-----------------------|
A|-----2-----------3---------3-3-2h3p2---|
E|-3-3---------------5-5-3-5-----------3-|

G|-----------------------------------------|
D|-----------------------------------------|
A|-----2h3p2-------------------3-3-5-3-----|
E|-3-3-------3-1-1-1-0-5-5-5-5---------3-3-|

LESS THAN JAKE - JOHNNY QUEST THINKS WE'RE SELLOUTS

G|-----1---------------1---1h2-2-1-----|
D|---2---2-----1-----2---2---------2-1-|
A|-4---------3---3-4-------------------|
E|---------4---------------------------|

G|-----1---------------1---2-4-2-1-1h2p1-----|
D|---2---2-----1-----2---2---------------2-1-|
A|-4---------3---3-4-------------------------|
E|---------4---------------------------------|

G|-----1---------------1---1h2-2-1-----|
D|---2---2-----1-----2---2---------2-1-|
A|-4---------3---3-4-------------------|
E|---------4---------------------------|

G|-----1---------------1------------|
D|---2---2-----1-----2---2------1---|
A|-4---------3---3-4----------3---3-|
E|---------4----------------4-------|

G|--------------------|
D|--------------------|
A|-4-4-3--4-4-3-4-6-7-|
E|--------------------|

G|-----------------|
D|---6---6---------|
A|-4---4-----3---3-| x4
E|---------4---4---|

G|-----1---------------1---2-1-----|
D|---2---2-----1-----2---2-----2-1-|
A|-4---------3---3-4---------------|
E|---------4-----------------------|

G|-----1---------------1-----------|
D|---2---2-----1-----2---2-----1---|
A|-4---------3---3-4---------3---3-|
E|---------4---------------4-------|

G|-----1---------------1---2h4-2-1-2-|
D|---2---2-----1-----2---2-----------|
A|-4---------3---3-4-----------------|
E|---------4-------------------------|

G|-----1---------------1-----------|
D|---2---2-----1-----2---2-----1---|
A|-4---------3---3-4---------3---3-|
E|---------4---------------4-------|

G|-------------------------------------|
D|-------------------------------------|
A|-1-1-1-1---------4-4-4-4-----3h4p3---|
E|---------2-2-2-2---------4-4-------4-|

G|-------------------------------|
D|---------4-3-4-----6-----------|
A|-1-1-1-1-------4-4---4-----6---|
E|-----------------------4-4---4-|

G|-------------------6-------------|
D|---------------------------------|
A|-1-1-1-1---------4---4---3h4p3---|
E|---------2-2-2-2-------4-------4-|

G|---------------------------------|
D|---------------------------------|
A|-1-1-1-1---------4-4-4-4-3-3-3-3-|
E|---------2-2-2-2-----------------|

G|--------------------|
D|--------------------|
A|-4-4-3--4-4-3-4-6-7-|
E|--------------------|

G|-----------------|
D|---6---6---------|
A|-4---4-----3---3-| x3
E|---------4---4---|

G|---------2h4-2-1-2-|
D|---6---6-----------|
A|-4---4-------------|
E|-------------------|

G|-----1---------------1---2-1-----|
D|---2---2-----1-----2---2-----2-1-|
A|-4---------3---3-4---------------|
E|---------4-----------------------|

G|-----1---------------1-----------|
D|---2---2-----1-----2---2-----1---|
A|-4---------3---3-4---------3---3-|
E|---------4---------------4-------|

G|-----1---------------1---2h4-2-1-2-|
D|---2---2-----1-----2---2-----------|
A|-4---------3---3-4-----------------|
E|---------4-------------------------|

G|-----1---------------1-----------|
D|---2---2-----1-----2---2-----1---|
A|-4---------3---3-4---------3---3-|
E|---------4---------------4-------|

G|-------------------------------------|
D|-------------------------------------|
A|-1-1-1-1---------4-4-4-4-----3h4p3---|
E|---------2-2-2-2---------4-4-------4-|

G|-------------------------------|
D|---------4-3-4-----6-----------|
A|-1-1-1-1-------4-4---4-----6---|
E|-----------------------4-4---4-|

G|---------------------------------|
D|---------------------------------|
A|-1-1-1-1---------4-4-4---3h4p3---|
E|---------2-2-2-2-------4-------4-|

G|---------------------------------|
D|---------------------------------|
A|-1-1-1-1---------4-4-4-4-3-3-3-3-|
E|---------2-2-2-2-----------------|

G|-------------------------------|
D|-------1-1-2h4-2-2-1-1---------|
A|-----1-----------------4-4-2-2-|
E|-2-2---------------------------|

G|-------------1h2-1---------------|
D|-------1-1-2-------2-1-2p1-2p1---|
A|-----1-------------------------2-|
E|-2-2-----------------------------|

G|------------------------------|
D|-------1-1--------------------|
A|-----1------2-1-2-2h4-2-1---1-|
E|-2-2----------------------4---|

G|-----------------------------------|
D|-------1-1-1-1h2-1-1h2-1-1h2-1-----|
A|-----1-------------------------2-1-|
E|-2-2-------------------------------|

G|-------------------------------|
D|-------1-1-2h4-2-2-1-1---------|
A|-----1-----------------4-4-2-2-|
E|-2-2---------------------------|

G|-------------1h2-1---------------|
D|-------1-1-2-------2-1-2p1-2p1---|
A|-----1-------------------------2-|
E|-2-2-----------------------------|

G|------------------------------|
D|-------1-1--------------------|
A|-----1------2-1-2-2h4-2-1---1-|
E|-2-2----------------------4---|

G|---------------------------------------------|
D|-------1-1-1-2-2-1-1---------2-2-1-1---------|
A|-----1---------------4-4-2-2---------4-4-2-2-|
E|-2-2-----------------------------------------|

G|-------------------------------------|
D|-------------------------------------|
A|-1-1-1-1---------4-4-4-4-----3h4p3---|
E|---------2-2-2-2---------4-4-------4-|

G|-------------------------------|
D|---------4-3-4-----6-----------|
A|-1-1-1-1-------4-4---4-----6---|
E|-----------------------4-4---4-|

G|---------------------------------|
D|---------------------------------|
A|-1-1-1-1---------4-4-4---3h4p3---|
E|---------2-2-2-2-------4-------4-|

G|---------------------------------|
D|---------------------------------|
A|-1-1-1-1---------4-4-4-4-3-3-3-3-|
E|---------2-2-2-2-----------------|

G|-3-3-3-3-6-5-6---6---6-5-6-3-3-3-3-6-5-6---6---6h8-5h6p5---|
D|---------------6---6---------------------6---6-----------6-|
A|-----------------------------------------------------------|
E|-----------------------------------------------------------|

G|---------------------------------------------------------|
D|---------------3-------------3-3-3-3---------2h3-2h3-1-1-|
A|-1-1-1-1---4-3---4-4-4-6-6-6---------4-4-4-4-------------|
E|---------2-----------------------------------------------|

G|--------------------------------------|
D|-------------------------6------------|
A|-4-4-3--4-4-3-4-6-7--4-4---4-3--4-4-3-|
E|--------------------------------------|

LESS THAN JAKE - KRAZY GLUE

sh = slow hammer hammer on

G|---------------------------------|
D|---------------------------------|
A|-3-3-3-3-3-3-3-3-4-4-4-4-4-4-4-4-|
E|---------------------------------|

G|-------------------------------------|
D|-------3-3----------6----------------|
A|---3-4-----6-4-3sh4---4--4-3-3-4-4-6-|
E|-4-----------------------------------|

G|-----------------------------3h5p3---|
D|-------3-3-------6-6-5-5-3-3-------3-|
A|---3-4-----6-4-3---------------------|
E|-4-----------------------------------|

G|-------------------------------------------------|
D|-------------3-3-4-4-6-6-------------3-3-4-4-6-6-|
A|---3---3-4-4---------------3-4h6-3-4-------------|
E|-4---4-------------------4-----------------------|

G|-----1---------3h5p3-----------------------------------|
D|-3-3---3-3-1-1-------1---------------------------------|
A|-----------------------3-3-3-3-3-3-3-3-4-4-4-4-4-4-4-4-|
E|-------------------------------------------------------|

G|-------------------------------------|
D|-------3-3----------6----------------|
A|---3-4-----6-4-3sh4---4--4-3-3-4-4-6-|
E|-4-----------------------------------|

G|-----------------------------3h5p3-|
D|-------3-3-------6-6-5-5-3-3-------|
A|---3-4-----6-4-3-------------------|
E|-4---------------------------------|

G|----------------------------------------------------------------|
D|----------------------------------------------------------------|
A|-----------------/8-8-8-8-6-6-6-6-4-4-4-4-4-4-4-4-4-4--4--4--44-|
E|-4-4-4-4-4-4-4-4------------------------------------------------|

G|------------------------------------------------------------------|
D|------------------------------------------------------------------|
A|-----------------/8-8-8-8-6-6-6-6-3-3-3-3-3-3-3-3-4-4-4-4-4-4-4-4-|
E|-4-4-4-4-4-4-4-4--------------------------------------------------|

G|-------------------------------------|
D|-------3-3----------6----------------|
A|---3-4-----6-4-3sh4---4--4-3-3-4-4-6-|
E|-4-----------------------------------|

G|---------------------------------|
D|-------3-3-------6-6-5-5-3-3-1-1-|
A|---3-4-----6-4-3-----------------|
E|-4-------------------------------|

G|-------------------------------------------------|
D|-------------3-3-4-4-6-6-------------3-3-4-4-6-6-|
A|---3---3-4-4---------------3-4h6-3-4-------------|
E|-4---4-------------------4-----------------------|

G|-----1---------3h5p3-----------------------------------|
D|-3-3---3-3-1-1-------1---------------------------------|
A|-----------------------3-3-3-3-3-3-3-3-4-4-4-4-4-4-4-4-|
E|-------------------------------------------------------|

G|---------------------------------------------|
D|---------------------------------------------|
A|-6-6-6-6-6-6-6-6-6-6-6-6-4-4-3-4-3-----------| x2
E|-----------------------------------4-4-3-4-3-|

G|-----------------------------|
D|-------6-5-------------------|
A|-6-6-6-----8-4-4-4-3---4-3---|
E|---------------------4-----4-|

G|-------------------------------------------------|
D|-------------------------------------------------|
A|-6-6-6-6-6-6-3-3-3-3-3-3-4-4-4-4-4-4-------------|
E|-------------------------------------4-4-4-4-4-4-|

G|-------------------------------------|
D|-------3-3----------6----------------|
A|---3-4-----6-4-3sh4---4--4-3-3-4-4-6-|
E|-4-----------------------------------|

G|-------------------------------------|
D|-------3-3----------------------3--3-|
A|---3-4-----6-4-3-4--4-3--3-4--4------|
E|-4-----------------------------------|

G|------------------------------------------------------------------|
D|------------------------------------------------------------------|
A|-----------------/8-8-8-8-6-6-6-6-3-3-3-3-3-3-3-3-4-4-4-4-4-4-4-4-|
E|-4-4-4-4-4-4-4-4--------------------------------------------------|

G|--------------------------|
D|--------------------------|
A|--------------------------|
E|-4------------------------|

LESS THAN JAKE - NEVER GOING BACK TO NEW JERSEY

G|----------------------|
D|----------------------|
A|-3-3------1-1-8-8-3-3-| 
E|----------------------|

G|----------------------5---|
D|--------------------5---5-|
A|-3-3------1-1-8-8-3-------|
E|--------------------------|

G|---------------------------------------------------|
D|---2-3-5-2h3-2-----2-----2-------------------------|
A|-3-------------3-3---3-3---3-1-0-1-------1---0-1-3-| 1,3
E|-----------------------------------3-1-0---1-------|

G|-----------------------------------------------------|
D|---2-3-5-2h3-2-----2-----2---------------3h5-3-2h3-5-|
A|-3-------------3-3---3-3---3-1-0-1-------------------| 2,4,6
E|-----------------------------------3-1-0-------------|

G|-----------------------------3h5-3-2-------------------|
D|---2-3-5-2h3-2-----2-----2-----------5-3-2-3-5-3-2---2-|
A|-3-------------3-3---3-3---3-----------------------5---| 5
E|-------------------------------------------------------|

G|---------------------------------|
D|-----------------------------5---|
A|-----------------3-3-3-3-2-2---2-|
E|-5-5-5-5-1-1-1-1-----------------|

G|-2-2-0-0----------------------------------------------|
D|---------3-3-5-5-3-3-2-2------2-2---------------------|
A|-------------------------5-5------3-3-0-0-8-8-8-7-8-7-|
E|------------------------------------------------------|

G|-------------------|
D|-------------------|
A|-3-3-0-0-8-8-8-8-8-|
E|-------------------|

G|---------------------------------------------------|
D|---2-3-5-2h3-2-----2-----2-------------------------|
A|-3-------------3-3---3-3---3-1-0-1-------1---0-1-3-| 1,3
E|-----------------------------------3-1-0---1-------|

G|-----------------------------------------------------|
D|---2-3-5-2h3-2-----2-----2---------------3h5-3-2h3-5-|
A|-3-------------3-3---3-3---3-1-0-1-------------------| 2,4,6
E|-----------------------------------3-1-0-------------|

G|-----------------------------3h5-3-2-------------------|
D|---2-3-5-2h3-2-----2-----2-----------5-3-2-3-5-3-2---2-|
A|-3-------------3-3---3-3---3-----------------------5---| 5
E|-------------------------------------------------------|

G|---------------------------------|
D|-----------------------------5---|
A|-----------------3-3-3-3-2-2---2-|
E|-5-5-5-5-1-1-1-1-----------------|

G|-2-2-0-0----------------------------------------------|
D|---------3-3-5-5-3-3-2-2------2-2---------------------|
A|-------------------------5-5------3-3-0-0-8-8-8-7-8-7-|
E|------------------------------------------------------|

G|-------------------|
D|-------------------|
A|-3-3-0-0-8-8-8-8-8-|
E|-------------------|

G|-----------------------------|
D|-----------------------------|
A|-brass--3-3-more brass-8-7-8-|
E|-----------------------------|

G|---------------------------------|
D|---------------------------------|
A|-3-3-3-3-3-3-3-3-0-0-0-0---------| x2
E|-------------------------3-3-3-3-|

G|---------------------------------|
D|---------------------3-3---------|
A|-3-3-3-3-3-3-3-3-0-0---------5-5-| x2
E|-------------------------3-3-----|

G|-------------------------------------------|
D|-----5---5-7-7-5-5-3-3-2-2-----3-3---------|
A|-3-3---3-------------------0-0---------5-5-| x2
E|-----------------------------------3-3-----|

G|------------------------------2-2-0-0---------------------|
D|------3-3-3-3-----5-------5-----------3-3-5-5-3-3-2-2---2-|
A|--------------3-3---3-2-2---2-------------------------5---|
E|--5-5-----------------------------------------------------|

G|-------------------------------|
D|-------------------------------|
A|-3-3-0-0-8-8-8-7-8-7-3-3-0-0-8-|
E|-------------------------------|

G|-------------------------------|
D|---------3-2-------3-3---------|
A|-3-3-3-3-----5-1-1---------5-5-|
E|-----------------------5-5-----|

G|---------2-2-----------------------------|
D|---5-5-------5-5-3-3-2-2-----3-3---------|
A|-3-----3-----------------1-1---------5-5-|
E|---------------------------------5-5-----|

G|---|
D|---|
A|-3-|
E|---|

LESS THAN JAKE - HOW'S MY DRIVING DOUG HASTINGS

G|-------------------|
D|-------------------|
A|---------6-6-6-6-6-|
E|-6-6-4-4-----------|

G|----------------------|
D|--------------5-5h6-5-|
A|---5-6---6--6---------|
E|-6-----4--------------|

G|-----------------------------|
D|---------------5h6-5-8-6-5h6-|
A|----5h6---6--6---------------|
E|--6-----4--------------------|

G|--------------------|
D|------------5h6p5---|
A|---5-6---6--------6-|
E|-6-----4------------|

G|---------------------|
D|-----------6-6-5-3---|
A|---5-6---6---------6-|
E|-6-----4-------------|

G|-----------------------|
D|-------------5h6-5h6-5-|
A|---5-6---6-6-----------|
E|-6-----4---------------|

G|-----------------------------|
D|---------------5h6-5-8-6-5h6-|
A|----5h6---6--6---------------|
E|--6-----4--------------------|

G|---------------------|
D|---------------------|
A|---5-6---6-6-6-6h8-6-|
E|-6-----4-------------|

G|---------------------|
D|-----------6-6-5-3---|
A|---5-6---6---------6-|
E|-6-----4-------------|

G|-----------------------------------------------|
D|-6--6-5--5-3--3------4--4-3--3-----------------|
A|----------------6--6-----------6-6-6-6-4-4-4-4-|
E|-----------------------------------------------|

G|--------------------------|
D|--------------------------|
A|--------------------------|
E|-4------------------------|

G|-----------------------------------------------|
D|---------------------------------------1h3p1---|
A|---3---4------3----------3---4-------3-------3-|
E|-4---4----4-6---6-4--4-4---4----4-6------------|

G|----------------------|
D|----------------------|
A|---3---4------3-------|
E|-4---4----4-6---6-4-4-|

G|-------------------|
D|-------------------|
A|-3-3-4-4-6-4-3-4---|
E|-----------------4-|

G|--------------------------|
D|------------------5-5h6p5-|
A|-----5-6-----6-6----------|
E|-6-6-----4-4--------------|

G|-------------------------------|
D|-----------------5h6-5-8-6-5h6-|
A|----5h6-----6--6---------------|
E|--6-----4-4--------------------|

G|-------------------------------|
D|-------------------------------|
A|-----5-6-----6-6-5-6-5-6-8-6p5-|
E|-6-6-----4-4-------------------|

G|---------------------------|
D|-----------------6-6-5-3---|
A|-----5-6-----6-6---------6-|
E|-6-6-----4-4---------------|

G|-----------------------------------------------|
D|-6--6-5--5-3--3------4--4-3--3-----------------|
A|----------------6--6-----------6-6-6-6-4-4-4-4-|
E|-----------------------------------------------|

G|--------------------------|
D|--------------------------|
A|--------------------------|
E|-4------------------------|

G|-----------------------------------------------|
D|---------------------------------------1h3p1---|
A|---3---4------3----------3---4-------3-------3-|
E|-4---4----4-6---6-4--4-4---4----4-6------------|

G|----------------------|
D|----------------------|
A|---3---4------3-------|
E|-4---4----4-6---6-4-4-|

G|-------------------|
D|-------------------|
A|-3-3-4-4-6-4-3-4---|
E|-----------------4-|

LESS THAN JAKE - JUST LIKE FRANK

G|------------7-------|
D|--------7-------7---|
A|-5*-5-5---5---5---5-|
E|--------------------|

* = play x24

G|---------------------------------|
D|---------------------------------|
A|-5-5-5-5-2-2-2-2-----------------| x4
E|-----------------0-0-0-0-3-3-5-5-|

G|-----------9---9--------------------------|
D|------------------------------------------|
A|-------7-7---7---10-10-9-9h10p9-5-5-4-5-4-|
E|-5-5-5------------------------------------|

G|-----------------------------|
D|-----------------------------|
A|-------------7-7-7-7-7-7-10*-|
E|-5-5-5-5-5-5-----------------|

* = play x16

G|-------------------------------------|
D|-------------------------------------|
A|-5-5-5-5---------7-7-7-7-10-9-9h10p9-| x4
E|---------5-5-5-5---------------------|

G|-------------------|
D|-----------5-4h5p4-|
A|-5-5-5-5-5---------|
E|-------------------|

G|-------------------------------------------|
D|-----4-4-4-4-2-4-2-----5-----5-----5-----4-|
A|-2-2---------------------------------------|
E|-------------------3-3---3-3---3-3---5-5---|

G|---------------------|
D|---4-5-7-5-4---4h5p4-|
A|-5-----------5-------|
E|---------------------|

G|-------------------------------------------|
D|-----4-4-4-4-2-4-2-----5-----5-----5-----4-|
A|-2-2---------------------------------------|
E|-------------------3-3---3-3---3-3---5-5---|

G|-------------------------------------------------|
D|-------------------------------------------------|
A|-5-5-5-5-2-2-2-2-----------------5-5-5-5-2-2-2-2-|
E|-----------------0-0-0-0-3-3-5-5-----------------|

G|---------------------------------------|
D|---------------------------------------|
A|---------------------------------------|
E|-0-0-0-0-0-0-3-3-3-3-3-3-3-5-5-5-5-5-5-|

G|-------------------|
D|-------------------|
A|-5-4-5-4-5-7-4h5p4-|
E|-------------------|

G|--------------------------------------|
D|-------------4-4h5ph4-----------------|
A|-----0-0-5-5--------------0-0-5-5-5-5-| x2
E|-3-3------------------3-3-------------|

G|----------------------------------|
D|-------------5(*)-----------------|
A|-----0-0-5-5----------0-0-5-5-5-5-|
E|-3-3--------------3-3-------------|

(*) = harmonic

G|-----------------------------------|
D|-------------4-4h5p4-2-----2-----2-|
A|-----0-0-5-5-----------------------|
E|-3-3-------------------0-0---0-0---|

G|-------------------------------------|
D|-------------------------------------|
A|-5-5-5-5---------7-7-7-7-10-9-9h10p9-| x2
E|---------5-5-5-5---------------------|

G|-------------------|
D|-----------5-4h5p4-|
A|-5-5-5-5-5---------|
E|-------------------|

G|-------------------------------------------|
D|-----4-4-4-4-2-4-2-----5-----5-----5-----4-|
A|-2-2---------------------------------------|
E|-------------------3-3---3-3---3-3---5-5---|

G|---------------------|
D|---4-5-7-5-4---4h5p4-|
A|-5-----------5-------|
E|---------------------|

G|-------------------------------------------|
D|-----4-4-4-4-2-4-2-----5-----5-----5-----4-|
A|-2-2---------------------------------------|
E|-------------------3-3---3-3---3-3---5-5---|

G|---|
D|---|
A|-5-|
E|---|

LESS THAN JAKE - ASK THE MAGIC 8 BALL

G|-----------------------------------|
D|-----------------------------------|
A|-----------------5-------7----5----|
E|-5-------3-------------------------|

G|-----------------------------------------------------------------|
D|-----4h5p4-------------5h7p5-4---------4h5p4---------------------|
A|---4-------5-4-----4-5---------5-4---4-------5-4---4-7-4---2-5-4-|
E|-5-------------5-5-----------------5-------------5-------3-------|

G|------------------------------------------------------------------|
D|-----4h5p4-------------5h7p5-4----------4h5p4---------------------|
A|---4-------5-4-----4-5---------5-4---4--------5-4---4-5-7---2-5-4-|
E|-5-------------5-5-----------------5--------------5-------3-------|

G|----------------------------------------|
D|-----------4--4---------------5h7-5-4---|
A|------4--4------4-5-4---4-5-7---------5-|
E|-5--5-----------------5-----------------|

G|------------------------------------|
D|-------4h5p4------------------------|
A|---4-5-------5-4------4-5-7---2-5-4-|
E|-5---------------5--5-------3-------|

G|-------------------------------------|
D|-------4h5p4---------------5h7-5-4---|
A|---4-5-------5-4-----4-5-7---------5-|
E|-5---------------5-5-----------------|

G|-----------------------------------|
D|-----------------------------------|
A|---4h5p4-4-7-4-5-4---4-7-4---2-5-4-|
E|-5-----------------5-------3-------|

G|------------------------------------------------------------------|
D|-----4h5p4-------------5h7p5-4----------4h5p4---------------------|
A|---4-------5-4-----4-5---------5-4---4--------5-4---4-7-4---2-5-4-|
E|-5-------------5-5-----------------5--------------5-------3-------|

G|------------------------------------------------------------------|
D|-----4h5p4-------------5h7p5-4----------4h5p4---------------------|
A|---4-------5-4-----4-5---------5-4---4--------5-4---4-5-7---2-5-4-|
E|-5-------------5-5-----------------5--------------5-------3-------|

G|----------------------------------------|
D|-----------4--4-------------5h7p5-4-----|
A|------4--4------4-5-4---4-5---------5-4-|
E|-5--5-----------------5-----------------|

G|--------------------------------------|
D|-----------4--4-----------------------|
A|------4--4------4-5-4---4-5-7---2-5-4-|
E|-5--5-----------------5-------3-------|

G|----------------------------------------|
D|-----------4--4-------------5h7p5-4-----|
A|------4--4------4-5-4---4-5---------5-4-|
E|-5--5-----------------5-----------------|

G|-----------------------------------|
D|-------4h5p4-----------------------|
A|---4---------4-------4-5-7---2-5-4-|
E|-5---5---------7-5-5-------3-------|

G|-----------------------------------------------------------------|
D|-----------------------------------------------------------------|
A|---------------------------------5-5-5-5-5-5-4-5-7-7-7-7-5-5-5-5-|
E|-5-5-5-5-5-5-5-5-3-3-3-3-3-3-3-3---------------------------------|

G|--------------------------|
D|---------5-7p5------------|
A|---------------7----------|
E|-5---------------5--------|

G|-------------------------------------------|
D|-7-7-7-------------------------------------|
A|-------7-7-4-5-7-7-5-5-4-5-4-5-4-5-4h5p4---|
E|-----------------------------------------5-|

G|---------------------------------------|
D|-7-7-7---------------------------------|
A|-------7-7-4-5-7-7-5-5h7p5-4-5-4-4-5-4-|
E|---------------------------------------|

G|-------------------------------------|
D|-7-7-7-------------------------------|
A|-------7-7-5-4-7-7-5-5-4---5-5-4h5p4-|
E|-------------------------5-----------|

G|----------------------------------------------|
D|-11-11-11-11-12-12-12-12-9-9-9-9-11-9-7-7p6h7-|
A|----------------------------------------------|
E|----------------------------------------------|

G|-----------------------------|
D|-----------------------------|
A|-----------------5-----------|
E|-5-------3---------------5---|

G|-------------------------|
D|-------------------------|
A|-----------------5-------|
E|-5-------3---------------|

G|---------------------------------|
D|---------------------------------|
A|-----------------------------5-5-| x2
E|-5-5-5-5-5-5-5-5-5-5-5-5-3-3-----|

G|-----------------------------------------------------------------|
D|-----4h5p4-------------5h7p5-4---------4h5p4---------------------|
A|---4-------5-4-----4-5---------5-4---4-------5-4---4-7-4---2-5-4-|
E|-5-------------5-5-----------------5-------------5-------3-------|

G|-------------------------------------------------|
D|-11-11-11-11-11-11-11-11-12-12-12-12-------------|
A|-------------------------------------10-10-10-10-| x2
E|-------------------------------------------------|

G|-----------------------------------|
D|-11--------------------------------|
A|-----------------------------------|
E|-----------------------------------|

LESS THAN JAKE - DOPEMAN

G|---------------------------------|
D|---------------------------------|
A|----------------3-3-3-3----5-5-5-|
E|-3-3-3-3--1-3-3------------------|

G|------------------------------2-------|
D|------------------------5-4-5---5-4-5-|
A|----------------3-3-3-3---------------|
E|-3-3-3-3--1-3-3-----------------------|

-----------------------------------------

G|-------------------|
D|------------2----4-|
A|-----2----3----5---| 1,4,5
E|-3-3---3-----------|

G|-------------------------|
D|----------------2------4-|
A|---------2----3----5-5---| 2
E|-3-3-3-3---3-------------|

G|---------------------|
D|------------2------4-|
A|-----2----3----5-5---| 3,6,7
E|-3-3---3-------------|

G|-----------------|
D|-----------------|
A|-----3---5-5-4-2-|
E|-3---------------|

G|-----------------|
D|---2-3-5---------|
A|-3---------5---2-| x3
E|---------3---3---|

G|-----------------------|
D|---5---5---3-3-3-3-2---|
A|-3---3---3-----------3-|
E|-----------------------|

play section x2
-----------------------------------------

G|---------------------------------|
D|---------------------------------|
A|---------2-3-5-3-2-3-3-3-3-2-3-5-| 1,3
E|-3-3-3-3-------------------------|

G|--------------------------------------------|
D|------------------------------------4-4h5p4-|
A|---------2-3-5-3-2-3-3-3-3-2-3-5--5---------| 2
E|-3-3-3-3------------------------------------|

G|--------------------------------|
D|--------------------------------|
A|---------2-3-5-3-2-3-3--5-5-4-2-|
E|-3-3-3-3------------------------|

G|-----------------|
D|---2-3-5---------|
A|-3---------5---2-| x3
E|---------3---3---|

G|-----------------------|
D|---5---5---3-3-3-3-2---|
A|-3---3---3-----------3-|
E|-----------------------|

G|-------------------|
D|------------2----4-|
A|-----2----3----5---|
E|-3-3---3-----------|

G|-------------------------|
D|----------------2------4-|
A|---------2----3----5-5---|
E|-3-3-3-3---3-------------|

G|---------------------|
D|------------2------4-|
A|-----2----3----5-5---|
E|-3-3---3-------------|

G|-----------------------|
D|-----5-5-4-2-----------|
A|-------------5-5-3-2---|
E|-3-------------------3-|

G|------------------------|
D|-----5-5-4-2---2------4-|
A|-------------3----5-5---| x3
E|-3----------------------|

G|-------------------------|
D|-----5-5-4-2-------------|
A|-------------5-5-3-2-----|
E|-3-------------------5-3-|

LESS THAN JAKE - JEN DOESN'T LIKE ME ANYMORE

G|---------|
D|---------|
A|-6-6-6-6-|
E|---------|

G|-------------------------------------------------------------|
D|---------------------------------------------------8-8-8-8-8-|
A|-----------------6-6-6-6-6-6-6-6-6---------8-8-8-8-----------|
E|-6-6-6-6-6-6-6-6-------------------6-6-6-6-------------------|

G|---------------------------------------|
D|---------------------10---10-10-8-7-10-|
A|-6-6-6-6-6-6-6-6-8-8----8--------------|
E|---------------------------------------|

G|-----------------------------------|
D|-8-8-8-8-6-6-6-6-5-5-5h6p5---------|
A|---------------------------6-6-6-6-|
E|-----------------------------------|

G|-------------------------------------------------------|
D|-------------------------------8-8-8-8-6-6-6-6-5-5-5-5-|
A|-6-6-6-6-6-6-6-6-8-8-8-8-8-8-8-------------------------|
E|-------------------------------------------------------|

G|---------|
D|---------|
A|-6-6-6-5-| x4
E|---------|

G|-----------------|
D|-------------8---|
A|-----------6---6-|
E|-----------------|

G|---------------------------------|
D|---------------------------------|
A|-------------------------6-6-6-6-| 1,3
E|-6-6-6-6-6-6-6-6-4-4-4-4---------|

G|-------------------------------|
D|---------5-----6-6-5-5---------|
A|-----------6-8---------8-8-6-6-| 2,4
E|-6-6-6-6-----------------------|

G|---------|
D|---------|
A|-6-6-6-5-| x3
E|---------|

G|--------------------------------------------|
D|--------------------------------------------|
A|--------6---------------8-8-8-8-6-6-6-6-----|
E|-6--------------6-----------------------/18-|

G|-------------------------------------------------------------|
D|---------------------------------------------------8-8-8-8-8-|
A|-----------------6-6-6-6-6-6-6-6-6---------8-8-8-8-----------|
E|-6-6-6-6-6-6-6-6-------------------6-6-6-6-------------------|

G|---------------------------------------|
D|---------------------10---10-10-8-7-10-|
A|-6-6-6-6-6-6-6-6-8-8----8--------------|
E|---------------------------------------|

G|-------------------------------------|
D|-8-8-8-8-6-6-6-6-5-5-5h6p5-6-6-5-----|
A|---------------------------------6-5-|
E|-------------------------------------|

G|---------------------------------|
D|---------------------------------|
A|-6-6-6-6-6-6-6-6-8-8-8-8-8-8-8-8-|
E|---------------------------------|

G|-------------------------|
D|-8-8-8-8-6-6-6-6-5-5-5-5-|
A|-------------------------|
E|-------------------------|

G|---------|
D|---------|
A|-6-6-6-5-| x4
E|---------|

G|-----------|
D|-----------|
A|-----------|
E|-6---------|

G|-----------------|
D|-------------8---|
A|-----------6---6-|
E|-----------------|

G|---------------------------------|
D|---------------------------------|
A|-------------------------6-6-6-6-| 1,3
E|-6-6-6-6-6-6-6-6-4-4-4-4---------|

G|-------------------------------|
D|---------5-----6-6-5-5---------|
A|-----------6-8---------8-8-6-6-| 2,4
E|-6-6-6-6-----------------------|

G|---------|
D|---------|
A|-6-6-6-5-| x4
E|---------|

G|---|
D|---|
A|---|
E|-6-|

G|-------------------------------------------------------|
D|-----------------------------------------5---6-6-6-5---|
A|-----5-------5-------------3-3-------6-6---6---------6-|
E|-6-6---6-6-6---6-5-3-3-6-3-----6-5-6-------------------|

G|----------------------|
D|-----10---10-10-8-7-8-|
A|-8-8----8-------------|
E|----------------------|

G|-------------------------------------------------------|
D|-----------------------------------------5---6-6-6-5---|
A|-----5-------5-------------3-3-------6-6---6---------6-|
E|-6-6---6-6-6---6-5-3-3-6-3-----6-5-6-------------------|

G|-----------------|
D|-----------------|
A|-8-8-8-8-6-6-6-6-|
E|-----------------|

G|-----------------------------------------------|
D|-----------------------------------------------|
A|-----------------6-6-6-5-6-5-8-8-8-8-6-6-8-6-5-|
E|-6-6-6-6-3-3-3-3-------------------------------|

G|-----------------------------------------------------------|
D|-----------5-----5-8-7-8-7---------8-7-8---7-8-10----5-6-8-|
A|---------------------------6-6-6-6-------8--------6--------|
E|-6-6-6-6-3---3-3-------------------------------------------|

G|---------------------------------|
D|---------5-----------------------|
A|-----------6-8-----8-8-6-6-5-6-5-|
E|-6-6-6-6-------4-4---------------|

G|-------------------------------|
D|---------5-----6-6-5-5---------|
A|-----------6-8---------8-8-6-6-|
E|-6-6-6-6-----------------------|

G|---------------------------------|
D|---------5-----------------------|
A|-----------6-8-----8-8-6-6-5-6-5-|
E|-6-6-6-6-------4-4---------------|

G|-------------------------------------------------------------|
D|---------5-----6-6-5-5-3-3-----------------------------------|
A|-----------6-8-------------6-6-8-8-8-6-6-5-5-----------------|
E|-6-6-6-6-------------------------------------8-8-6-6-5-5-6-6-|

LESS THAN JAKE - ROCK N ROLL PIZZARIA

G|----------------------------------------------|
D|----------------------------------------------|
A|-2--------2--------2--------2--------2--------|
E|----------------------------------------------|

G|-----------------4-2-1---------|
D|-----1h2-------1-------4-2-1---|
A|-2-2-----2-2-2---------------4-| x2
E|-------------------------------|

G|---------2-1-----2h4-2-2-1-----|
D|-----1h2-----4-2-----------4-2-|
A|-2-2---------------------------|
E|-------------------------------|

G|-----------------1-1-1-2-2-2-|
D|-----1h2-------1-------------|
A|-2-2-----2-2-2---------------|
E|-----------------------------|

G|-------------------------------------------------------------|
D|---------2-2-2---------2-2-2-2---------2-2-2-2---------------|
A|-2-2-2-2-------2-2-2-2---------2-2-2-2---------0-0-0-0-0-0-0-| x2
E|-------------------------------------------------------------|

G|-------------------------|
D|-------2-2-2-------------|
A|-4-4-4-------2-2-2-0-0-0-|
E|-------------------------|

G|-----------------------|
D|-------2-2-2-----------|
A|-4-4-4-------2---0-0-0-|
E|-----------------------|

G|-------------------------|
D|-------2-2-2-------------|
A|-4-4-4-------2-2-2-0-0-0-|
E|-------------------------|

G|------------------------|
D|-------2-2-2------------|
A|-4-4-4-------0--0--0--0-|
E|------------------------|

G|---------------------------------1-2-1-2-4-2-1---|
D|-1--1-2--2------1h2-1h2------------------------4-|
A|-----------4--4----------------------------------|
E|------------------------5--4--2------------------|

G|---------------------------------1-2-1-2-4-2-1-|
D|-1--1-2--2------1h2-1h2------------------------|
A|-----------4--4--------------------------------|
E|------------------------5--4--2----------------|

G|-----------------4-2-1---------|
D|-----1h2-------1-------4-2-1---|
A|-2-2-----2-2-2---------------4-| x2
E|-------------------------------|

G|---------2-1-----2h4-2-2-1-----|
D|-----1h2-----4-2-----------4-2-|
A|-2-2---------------------------|
E|-------------------------------|

G|-----------------1-1-1-2-2-2-|
D|-----1h2-------1-------------|
A|-2-2-----2-2-2---------------|
E|-----------------------------|

G|-------------------------------------------------------------|
D|---------2-2-2---------2-2-2-2---------2-2-2-2---------------|
A|-2-2-2-2-------2-2-2-2---------2-2-2-2---------0-0-0-0-0-0-0-| x2
E|-------------------------------------------------------------|

G|-------------------------|
D|-------2-2-2-------------|
A|-4-4-4-------2-2-2-0-0-0-|
E|-------------------------|

G|-----------------------|
D|-------2-2-2-----------|
A|-4-4-4-------2---0-0-0-|
E|-----------------------|

G|-------------------------|
D|-------2-2-2-------------|
A|-4-4-4-------2-2-2-0-0-0-|
E|-------------------------|

G|----------------------------------------|
D|-------2-2-2----------------------------|
A|-4-4-4-------0--0--0--0-0-0-0-0-0-0-0-0-|
E|----------------------------------------|

G|---------------------------------1-2-1-2-4-2-1---|
D|-1--1-2--2------1h2-1h2------------------------4-|
A|-----------4--4----------------------------------|
E|------------------------5--4--2------------------|

G|---------------------------------1-2-1-2-4-2-1-|
D|-1--1-2--2------1h2-1h2------------------------|
A|-----------4--4--------------------------------|
E|------------------------5--4--2----------------|

G|---------------------------------/4-2-1---2-1-2-2h4-2-1-|
D|-1--1-2--2------1h2-1h2-----------------4---------------|
A|-----------4--4-----------------------------------------|
E|------------------------5--4--2-------------------------|

G|-----------------4-2-1---------|
D|-----1h2-------1-------4-2-1---|
A|-2-2-----2-2-2---------------4-| x2
E|-------------------------------|

G|---------2-1-----2h4-2-2-1-----|
D|-----1h2-----4-2-----------4-2-|
A|-2-2---------------------------|
E|-------------------------------|

G|-----------------1-1-1-2-2-2-|
D|-----1h2-------1-------------|
A|-2-2-----2-2-2---------------|
E|-----------------------------|

G|-----------------|
D|-----2-1---------|
A|-2-------4-2---2-|
E|-----------------|

LESS THAN JAKE - LOCKDOWN

G|-----------------------|
D|-----------------------|
A|-----------------------|
E|-0------------2--4--0--|

G|-------------------------------------|
D|-----------------7-6-4-6-4---7-6-4-6-|
A|---------5-5-5-5-----------7---------|
E|-0-0-0-0-----------------------------|

G|-------------7-7-7-7----------64-------|
D|-----6---------------------------7-6---|
A|-7-7---7-5-5-----------4-5-7---------7-|
E|---------------------5-----------------|

G|-------------7-7-7-7-----------------|
D|-----6-------------------------------|
A|-7-7---7-5-5-----------4-5-7---4-5-7-|
E|---------------------5-------5-------|

G|---------------------------------|
D|---------------------------------|
A|---------------------------------|
E|-0------0-0-----------0-0--------|

G|---------------------------------|
D|---------------------------------|
A|---------------------------------| x4
E|-0-0-0-0-0-0-0-0-4-4-4-4-5-5-5-5-|

G|---------------------------------|
D|-----------------2-2-2-2---------|
A|-4-4-4-4-2-2-2-2---------0-0-0-0-|
E|---------------------------------|

G|---------------------1-4-2--1h2p1---|
D|-------------------2--------------2-|
A|-4-4-4-4-2-2-2-2--------------------|
E|------------------------------------|

G|-------------1-----1---------------------------------------------|
D|-----6-----------2-----------------------------------------------|
A|-4-4---4-2-2---2-----0-0-0-0-0-0-0-0-0-0-0-0-0-4--4--4--2--2--2--|
E|-----------------------------------------------------------------|

G|---------------------------------|
D|---------------------------------|
A|---------5-5-5-5-----------------|
E|-0-0-0-0---------5-5-5-5-5-5-5-4-|

G|---------------------------------|
D|-----------------7-6-4---7-6-4-6-|
A|---------5-5-5-5-------7---------|
E|-0-0-0-0-------------------------|

G|-----------------------------64-------|
D|-----6-------7-7-7-7------------7-6---|
A|-7-7---7-5-5-----------4-5-7--------7-|
E|---------------------5----------------|

G|-------------------------------------|
D|-----6-------------------------------|
A|-7-7---7-5-5-5-5-5-5---4-5-7---4-5-7-|
E|---------------------5-------5-------|

G|---------------------------------|
D|---------------------------------|
A|---------------------------------| x4
E|-0-0-0-0-0-0-0-0-4-4-4-4-5-5-5-5-|

G|---------------------------------|
D|-----------------2-2-2-2---------|
A|-4-4-4-4-2-2-2-2---------0-0-0-0-|
E|---------------------------------|

G|-------------1-------1-4-2-1h2-1h2-|
D|-----6-------------2---------------|
A|-4-4---4-2-2---2-------------------|
E|-----------------------------------|

G|-------------1-----1-----------------------------|
D|-----6-----------2-------------------------------|
A|-4-4---4-2-2---2-----0-0-0-0-0-0-0-0-4-4-4-2-2-2-|
E|-------------------------------------------------|

G|-----------------|
D|-----------------|
A|-7---6---5---4---|
E|-----------------|

G|---------------------------------|
D|---------------------------------|
A|-7-------6-------5-------4-------| x2
E|---0-0-0---0-0-0---0-0-0---0-0-0-|

G|-----------------------------------------------------------------|
D|-2-2-2-2-2-2-2-2-2-2-2-2-2-2-2-2---------------------------------|
A|---------------------------------5-5-5-5-5-5-5-5-4-4-4-4-4-4-4-4-|
E|-----------------------------------------------------------------|

G|--------------------------------------------|
D|----7-6---9-11-9--7-6-----7-6---------------|
A|-7------9-------------9-7-----9-7-----------|
E|-----------------------------------7--7--5--|

G|-----------------------|
D|-----------------------|
A|-----------------------|
E|-0------------2--4--0--|

G|---------------------------------|
D|-----------------2-2-2-2---------|
A|-4-4-4-4-2-2-2-2---------0-0-0-0-|
E|---------------------------------|

G|---------------------1-4-2--1h2p1---|
D|-------------------2--------------2-|
A|-4-4-4-4-2-2-2-2--------------------|
E|------------------------------------|

G|-------------1-----1---------------------------------------------|
D|-----6-----------2-----------------------------------------------|
A|-4-4---4-2-2---2-----0-0-0-0-0-0-0-0-0-0-0-0-0-4--4--4--2--2--2--|
E|-----------------------------------------------------------------|

G|---------------------------------|
D|---------------------------------|
A|---------5-5-5-5-----------------|
E|-0-0-0-0---------5-5-5-5-5-5-5-4-|

G|---------------------------------|
D|-----------------7-6-4---7-6-4-6-|
A|---------5-5-5-5-------7---------|
E|-0-0-0-0-------------------------|

G|-----------------------------64-------|
D|-----6-------7-7-7-7------------7-6---|
A|-7-7---7-5-5-----------4-5-7--------7-|
E|---------------------5----------------|

G|-----------------------------|
D|-----6-----------------------|
A|-7-7---7-5-5-5-5-5-5---4-5-7-|
E|---------------------5-------|

G|------------------------------|
D|-------------------7--6--4----|
A|----5--------5--------------7-|
E|-5-----5--5-----5-------------|

END!
comments
We did not receive enough feedback on this tab! Please rate:
print report bad tab
1 2 3 4 5
I want to post or [tab]
guest
You may want to rate the tab now too:
select rating
Please do not post tabs as comments. Select "correction" instead!