Oops, an error
Loading. Please wait.

Losing Streak Tab

2,429 views 3 this week
2 commentsread comments
1 2 3 4 5
excellent!
x 10
Autoscroll
+/-
esc
set tempo
stop
Contributor
Hey! There's an official Ultimate Guitar app which is ideal
for learning songs when you're away from computer. Get the app
WARNING: You are trying to view
                                    content from Ultimate-Guitar.com
                                    in an unauthorized application,
                                    which is prohibited.

                                    Please use an official Ultimate
                                    Guitar Tabs application for iPhone,
                                    iPad or Android to access legitimate
                                    chords, guitar, bass, and drum tabs
                                    from Ultimate-Guitar.com database.

                                    Type "ultimate guitar tabs" in Apple
                                    App Store's or Android Market's
                                    search to find the application.
This is one of my favourite albums and barely any of the tabs have been done
for it so i've decided to try to tab the whole album. It's not too hard to play
but there are fast chord changes in the album so try to master the chord figurations
and the ska style to some of there songs, for example the chord of C is normally
played in regular songs:

[-355--]or[81010---]or[032010]              

This is how C is played in ltj ska chords sometimes:

[335553]or[---553]or[--10988] etc

and remember most of the time ska is upstrokes unless it's played really fast.

if you don't understand all of that or you can't be arsed to read it then basically
just abrevieate the chords and that’s basically how to play basic ska a part from;
the strumming pattern(which hopefully you can work out yourself) and some times they
add a few mutes in between chords to add to the ska style. Anyway I hope you appreiciate
this all ltj fans. I really don't think there's many ltj fans that go on this website
though because none of them actually rate any of my tabs. Anyway (again) that's all my
explaining I can be bothered to do thanx.
--------------------------------------------------------------------------------
Less than jake-Automatic


Intro/Chorus

 1st time
e|---------------------------------------------------------------------------|
B|---------------------------------------------------------------------------|
G|-7-7-77--------4-4-44------------------------------------------------------|
D|-7-7-77-55-5-5-4-4-44-5-5-55/7-7-------------------------------------------|
A|-5-5-55-55-5-5-2-2-22-5-5-55/7-7-------------------------------------------|
E|--------33-3-3--------3-3-33/5-5-------------------------------------------|
   D      G      B      G      A
  2nd time
e|---------------------------------------------------------------------------|
B|---------------------------------------------------------------------------|
G|-7-7-77--------4-4-44------------------------------------------------------|
D|-7-7-77-55-5-5-4-4-44-7-7--------------------------------------------------|
A|-5-5-55-55-5-5-2-2-22-7-7--------------------------------------------------|
E|--------33-3-3--------5-5--------------------------------------------------|
   D      G      B      A
  
  Verse (Ska style, use fast chord changes)

  1st time
e|-5-5-5-5-55-x-55-5-7-7-77-x-55-5-5-33-3-33-3-3-3-3-333/5-5-5-5-55-5-5------|
B|-7-7-7-7-77-x-77-7-8-8-88-x-55-5-5-33-3-33-3-3-3-3-333/5-5-5-5-55-5-5------|
G|-7-7-7-7-77-x-77-7-9-9-99-x-66-6-6-44-4-44-4-4-4-4-444/6-6-6-6-66-6-6------|
D|-7-7-7-7-77-x-77-7-9-9-99---77-7-7-55-5-55-5-5-5-5-555/7-7-7-7-77-7-7------|
A|-5-5-5-5-55---55-5-7-7-77--------------------------------------------------|
E|-5-5-5-5-55---55-5-7-7-77--------------------------------------------------|
   D                 Em       A      G                   A

  2nd time

e|-5-5-5-5-55-x-55-5-7-7-77-x-55-5-5-33-3-33-x-5-5-555-5-5-5-5-55-5-5--------|
B|-7-7-7-7-77-x-77-7-8-8-88-x-55-5-5-33-3-33-x-7-7-777-5-5-5-5-55-5-5--------|
G|-7-7-7-7-77-x-77-7-9-9-99-x-66-6-6-44-4-44-x-7-7-777-6-6-6-6-66-6-6--------|
D|-7-7-7-7-77-x-77-7-9-9-99---77-7-7-55-5-55-x-7-7-777-7-7-7-7-77-7-7--------|
A|-5-5-5-5-55---55-5-7-7-77--------------------------------------------------|
E|-5-5-5-5-55---55-5-7-7-77--------------------------------------------------|

  interlude ( hey! bit ) Ska fast style ( I can't figure out the rythme so you
  will have to figure it out yourself)
e|-2-----5-----3-----7-------------------------------------------------------|
B|-4-----5-----4-----9-------------------------------------------------------|
G|-4-etc-6-etc-5-etc-9-etc---------------------------------------------------|
D|-4-----7-----5-----9-------------------------------------------------------|
A|-2-----------3-----7-------------------------------------------------------|
E|-2-----------3-----7-------------------------------------------------------|

End on D  then play it 1234r1234


| /  slide up
| \  slide down
| r  rest
| x  Mute note

===============================================================================

===============================================================================
 Less than jake-happy man

 
  Intro (let all chords ring)
e|---------------------------------------------------------------------------|
B|---------------------------------------------------------------------------|
G|-5----3----5----3----------------------------------------------------------|
D|-5----3----5----3--6-x-----------------------------------------------------|
A|-3----1----3----1--6-x-----------------------------------------------------|
E|-------------------4-x-----------------------------------------------------|
   C    A#   C    A# G#


  Bit after intro/verse (Do this straight after intro)
e|-1-----4-------------------------------------------------------------------|
B|-3-----4-------------------------------------------------------------------|
G|-3-etc-5-etc---------------------------------------------------------------|
D|-3-----6-------------------------------------------------------------------|
A|---------------------------------------------------------------------------|
E|---------------------------------------------------------------------------|
  A#    G#
  Chorus
e|---------------------------------------------------------------------------|
B|---------------------------------------------------------------------------|
G|-55555555-33333333----------33333333---------------------------------------|
D|-55555555-33333333-66666666-33333333---------------------------------------|
A|-33333333-11111111-66666666-11111111---------------------------------------|
E|-------------------44444444------------------------------------------------|
   C        A#       G#       A#

  Then ("You say it's work all day")
e|---------------------------------------------------------------------------|
B|---------------------------------------------------------------------------|
G|-3-3-3-33-3-3-3-33---------------------------------------------------------|
D|-3-3-3-33-3-3-3-33-6-6-6-66-6-6-6-66---------------------------------------|
A|-1-1-1-11-1-1-1-11-6-6-6-66-6-6-6-66---------------------------------------|
E|-------------------4-4-4-44-4-4-4-44---------------------------------------|
   G#                A#

  Interlude
 
  |C|A#|G#|

  Then

  |A#|G#|

===============================================================================

Less than Jake- 9th at pine


The other tab for this sucks. So here is the correct tab. This song rules ( the
whole album rules ) so if you don't have this album already i advise you to get
it. It's probaly the best ltj album. Actually I can't say that there all amazing
Fair enough person who's already tabbed  this you did okay with the first 2 chords
(A#+G#) but other than that it is completely incorrect.
This songs actually tuned down 1/2 a step.( Eb,Ab,Db,Bb,Gb,eb ) That's if you
want to play along with the cd but if you can't be bothered to tune it down just
use standard tuning.
I've put the chords under the tabs if you find it easier.

   Intro/Chorus (play ska style), clean (non distort)

eb|-7-7-7-7-7-7-7-7-5-5-5-05-050-5-5-7----------------------------------------|
Bb|-7-7-7-7-7-7-7-7-5-5-5-55-555-5-5-7----------------------------------------|
Gb|-8-8-8-8-8-8-8-8-6-6-6-66-666-6-6-8---x3-----------------------------------|
Db|-9-9-9-9-9-9-9-9-7-7-7-77-777-7-7-9----------------------------------------|
Ab|---------------------------------------------------------------------------|
Eb|---------------------------------------------------------------------------|
    B               A

   do this on the last time ( Distort when power chords come in )
eb|-7-7-7-7-7-7-7-7-----------------------------------------------------------|
Bb|-7-7-7-7-7-7-7-7-----------------------------------------------------------|
Gb|-8-8-8-8-8-8-8-8-----------------------------------------------------------|
Db|-9-9-9-9-9-9-9-9-6-6-6-666-2-2-2-222---------------------------------------|
Ab|-----------------6-6-6-666-2-2-2-222---------------------------------------|
Eb|-----------------4-4-4-444-0-0-0-000---------------------------------------|
   B                G#m       E


   Verse
eb|---------------------------------------------------------------------------|
Bb|---------------------------------------------------------------------------|
Gb|------------4-4-4-444------------6-6-6-666---------------------------------|
Db|-6-6-6-666--4-4-4-444-2-2-2-222--6-6-6-666---------------------------------|
Ab|-6-6-6-666--2-2-2-222-2-2-2-222--4-4-4-444---------------------------------|
Eb|-4-4-4-444------------0-0-0-000--------------------------------------------|
    G#m        B         E          C#m


   Bridge/ Interlude ( What ever you wanna call it )
eb|---------------------------------------------------------------------------|
Bb|---------------------------------------------------------------------------|
Gb|-4-44-x-4-x-4--2-2----------4-4-4-44-4-4-4-44------------------------------|
Db|-4-44-x-4-x-4--2-22-x-2-x-2-4-4-4-44-4-4-4-44-6-6-6-66-2-2-2-22--x2--------|
Ab|-2-22-x-2-x-2--0-02-x-2-x-2-2-2-2-22-2-2-2-22-6-6-6-66-2-2-2-22------------|
Eb|------------------0-0-0-0-0-------------------4-4-4-44-0-0-0-00------------|
    B             A  E         B                 G#m      E


   Last chorus ( do this twice as fast as you do the normal chorus )
eb|---------------------------------------------------------------------------|
Bb|---------------------------------------------------------------------------|
Gb|-4-44-44-4-44-44-----------------------------------------------------------|
Db|-4-44-44-4-44-44-6-66-666-2-22-222--x8-------------------------------------|
Ab|-2-22-22-0-00-00-6-66-666-2-22-222-----------------------------------------|
Eb|-----------------4-44-444-0-00-000-----------------------------------------|
    B       B/A     G#m      E   


  Intro for the horns ( I thought i'd add this )
eb|--2-------------2----------------2--------2--------------------------------|
Bb|-4--545-54-5p4-5--4-4-2-42----24--4--45-54-5--4-4-2-42---------------------|
Gb|--------------------------4-4----------------------------------------------|
Db|---------------------------6-----------------------------------------------|
Ab|---------------------------------------------------------------------------|
Eb|---------------------------------------------------------------------------|

Thanx Thats kind of it. Oh yeah you end the song with B power chord. The dodgy
thing about this song is it's in the key of B but you can just play B the whole
way through this song and it will sound okay.

| /  slide up
| \  slide down
| h  hammer-on
| p  pull-off
| x  Mute note
===============================================================================

 Sugar in your gas tank

  Distort:

  Opening chord: B(let ring)

  Then:(fast)
e|---------------------------------------------------------------------------|
B|---------------------------------------------------------------------------|
G|--9-9-9-86-----------------------------------------------------------------|
D|--9-9-9-999----------------------------------------------------------------|
A|--7-7-7-779----------------------------------------------------------------|
E|----------7----------------------------------------------------------------|
    E     E/C#+D# B (i coudn't fit the chord names all in so you'll just have to try and understand)  

  Verse
  1st time
e|-2-2-2-2-22-2-2-2-2-22--2-2-2-2-22-7-7-7-7-77------------------------------|
B|-4-4-4-4-44-4-4-4-4-44--2-2-2-2-22-9-9-9-9-99------------------------------|
G|-4-4-4-4-44-4-4-4-4-44--3-3-3-3-33-9-9-9-9-99------------------------------|
D|-4-4-4-4-44-4-4-4-4-44--4-4-4-4-44-9-9-9-9-99------------------------------|
A|---------------------------------------------------------------------------|
E|---------------------------------------------------------------------------|
   B                      F#         E

 2nd time
e|-2-2-2-2-22-2-2-2-2-22-----------------------------------------------------|
B|-4-4-4-4-44-4-4-4-4-44-----------------------------------------------------|
G|-4-4-4-4-44-4-4-4-4-44-----------------------------------------------------|
D|-4-4-4-4-44-4-4-4-4-44--3--------------------------------------------------|
A|------------------------3--------------------------------------------------|
E|------------------------1--------------------------------------------------|


   2nd time
e|-2-2-2-2-22-2-2-2-2-22-----------------------------------------------------|
B|-4-4-4-4-44-4-4-4-4-44-----------------------------------------------------|
G|-4-4-4-4-44-4-4-4-4-44-----------------------------------------------------|
D|-4-4-4-4-44-4-4-4-4-44--4-4-4-44-2-2-2-22----------------------------------|
A|------------------------4-4-4-44-2-2-2-22----------------------------------|
E|------------------------2-2-2-22-0-0-0-00----------------------------------|
   B                      F#       E


  Chorus 
  1st time
e|---------------------------------------------------------------------------|
B|---------------------------------------------------------------------------|
G|-4-4-4444-4-4-4444---------------------------------------------------------|
D|-4-4-4444-4-4-4444-4-4-4444-2-2-4444---------------------------------------|
A|-2-2-2222-2-2-2222-4-4-4444-2-2-4444---------------------------------------|
E|-------------------2-2-2222-0-0-2222---------------------------------------|
   B                 F#       E   F#
  
  2nd time
e|---------------------------------------------------------------------------|
B|---------------------------------------------------------------------------|
G|-4-4-4444-4-4-4444---------------------------------------------------------|
D|-4-4-4444-4-4-4444-4-4-4444-2-2--------------------------------------------|
A|-2-2-2222-2-2-2222-4-4-4444-2-2--------------------------------------------|
E|-------------------2-2-2222-0-0--------------------------------------------|
   B                 F#       E  L.R------------- 

  Interlude (the single notes are played on the bass)
e|---------------------------------------------------------------------------|
B|---------------------------------------------------------------------------|
G|-4-------------------------------------------------------------------------|
D|-4-------------------------------------------------------------------------|
A|-2-2-2-2-2-22-------------0-0-0-00-0---------------------------------------|
E|-------------2-2-2-2-2220-----------0-0-0-0-00000000-----------------------|
   B
   L.R-----------------

  Then the guitar kicks in with fast strumming
e|---------------------------------------------------------------------------|
B|---------------------------------------------------------------------------|
G|-4-4-444---------2-2-222---------------------------------------------------|
D|-4-4-444-4-4-444-2-2-222-2-2-2-2-------------------------------------------|
A|-2-2-222-4-4-444-0-0-000-2-2-2-2-------------------------------------------|
E|---------2-2-222---------0-0-0-0-------------------------------------------|
   B       F#      A       E


L.R=let ring
===============================================================================

Less than jake-Shindo


There are no tabs for this, why? This is an amazing song by ltj ( even if most of
ltj's songs are amazing here it is anyway. Asuming you know simple chords I won't
bother to but them down. Some of the chords are ska chords which means you play
the last few notes of them this is correct.

Intro/ Chorus (most of the intro is muted but the chorus is not and you don't
play the ska chord F in the chorus)

Muted:     C                 G                 A#                  F
 Somethings out there and it takes me away to a world to small, to small to stay

           C              G                       A#               Fska chord   
 Somethings out there ere ere__________ Somethings out there________________  


                                x2

  C ( play a few times so work out the rythme)

   Verse


         G                F          C          Am         C  
 Another day in this place so small, I'd rather be somebody else,

             G               F       C        A          C  
 Maybe if my mind wasen't so tall, I wouldn't be able to tell,

  
   Bridge 

  F                    G           Dm            F          
 And I've walked these streets, it seems like 10 million times,

          F          G             Dm              F
 and I've seen these things up and leave time after time

    F       G            C                              G   F 
 I'd rather be somebody, bad habits, old habits so many Die hard
  
 
  Second verse

  This is exactly the same as the first verse but with ska chords instead of  power chords.  

 End
  G     C
  1+2 3 4

Intro      x2
Verse      x1
Bridge     x1
Chorus     x2
Verse(ska) x1
Bridge     x1
Chorus     x2
End        x1   
===============================================================================

===============================================================================

107

This is a average song of the losing streak album. I think it's a good song but it's
not a song that I listen to all the time. Anyway here's the tabs for it.
 
 s=ska
 p=power chord

  Chords
  
   Ep     Gp    Fp     Cp    Dp    Gs    Cs    Ds
e|---------------------------------3-----3-----5-----------------------------|
B|---------------------------------3-----5-----7-----------------------------|
G|---------------------5-----7-----4-----5-----7-----------------------------|
D|-2------5-----3------5-----7-----5-----5-----7-----------------------------|
A|-2------5-----3------3-----5-----5-----3-----5-----------------------------|
E|-0------3-----1------------------3-----3-----5-----------------------------|
      

 Intro

 Cs,Ds

 
 Verse


 Gs               Cs  Ds        Cs    Gs           Cs       Ds   Cs           
 Unless you could see inside my head, you couldn't possibly understand,


 Gs               Cs         Ds      Cs         Gs           Cs  Dp             
 I'm happier when things are falling apart, but you'll never know just by 


           Cp
 looking at me.


  
                 
 Strung out on the future, put out on the past

 
 Sometimes I'd rather burn this place right to the ground.


 Strung out on the future, put out on the past
Gp                    Fp                   Ep
 Oh____________________Oh_____________________


  Verse 2

 
  Gs           Cs              Ds              Cs
  You know, it may be with the parkin' lot and all those streets,

  Gs           Cs        Ds      Cs           
  Keeps me convincing myself I'm completely safe.

       Gs             Cs         Ds       Cs   
  well we'll say it's boring- my hearts desire takin' it

       Gs      Cs    Dp             Cp       
  That I__________ wouldn't want it any other way. 


  
  Bridge (bit before second chorus)

  Gp       Ep             Cp          Dp           Gp
  Can't explain when this place races through my mind,

           Ep               Cp        Dp 
  Can't explain when, but I know why, know why.

  Gp        Ep            Cp(L.R)                             Cp Dp
  Can't explain when this place races through my mind_________ 


  Interlude

  the interlude is the same as the verse so use ska chords but you actually play the
  interlude about twice as fast as the verse.
But heres the chords anyway:

Gs|Gs|Cs|Ds,Cs

L.R=let ring
|=1 bar
,=the bar is shared (only for the interlude)

Order

Intro
Verse
Chorus
Verse 2
Bridge
Chorus
Interlude
Bridge
Chorus (I'm not sure if it actually ends with the chorus you'll have to check it out yourself)
 
===============================================================================

Krazy Glue

This is a great song. I love the chord figuration it sounds so cool.
I've got this spot on I think because it's really hard to tell when the major switches
to the minor or which whey round they are. anyway youll just have to try and figure it
out yourself if you think I've got it wrong.
Hmmmmmmmm shall I do what I've just done (chords) or shall I do tabs. I'll do a tab. 

  Intro (play this moderatly fast)

e|---------------------------------------------------------------------------|
B|---------------------------------------------------------------------------|
G|-5-5-5-5-5-5-5-5-6-6-6-6-6-6-6-6-------------------------------------------|
D|-5-5-5-5-5-5-5-5-6-6-6-6-6-6-6-6-------------------------------------------|
A|-3-3-3-3-3-3-3-3-4-4-4-4-4-4-4-4-------------------------------------------|
E|-3-3-3-3-3-3-3-3-4-4-4-4-4-4-4-4-------------------------------------------|
   C               C#

  Verse (use mutes in between each chord) 
e|-4-4-4-4-4-4-4-4-----------------------------------------------------------|
B|-4-4-4-4-6-6-5-5-----------------------------------------------------------|
G|-5-5-5-5-6-6-6-6-----------------------------------------------------------|
D|-6-6-6-6-6-6-6-6-----------------------------------------------------------|
A|-6-6-6-6-4-4-4-4-----------------------------------------------------------|
E|-4-4-4-4-4-4-4-4-----------------------------------------------------------|
   G#      C#  C#m
 "It seems I can't explain it all, all my reasons are gone"etc


  
  Then
e|-4-4-4-4-1-1-1-1-----------------------------------------------------------|
B|-4-4-4-4-1-1-1-1-----------------------------------------------------------|
G|-5-5-5-5-2-2-2-2-----------------------------------------------------------|
D|-6-6-6-6-3-3-3-3-----------------------------------------------------------|
A|-6-6-6-6-3-3-3-3-----------------------------------------------------------|
E|-4-4-4-4-1-1-1-1-----------------------------------------------------------|
 "Well it's hard to execpt and it's hard to explain"etc


  Then
e|-8--8--8--8--4-4-4-4-------------------------------------------------------|
B|-9--9--9--9--6-6-5-5-------------------------------------------------------|
G|-10-10-10-10-6-6-6-6-------------------------------------------------------|
D|-10-10-10-10-6-6-6-6-------------------------------------------------------|
A|-8--8--8--8--4-4-4-4-------------------------------------------------------|
E|-8--8--8--8--4-4-4-4-------------------------------------------------------|
 "guess we'll always have tradition to fall back on"

There's a bit before the chorus with horns this is exactly the same as part one of the verse.
  
  
  Chorus
e|---------------------------------------------------------------------------|
B|---------------------------------------------------------------------------|
G|---------------------------6-----------------------------------------------|
D|-6666666666666666\33333333-6-----------------------------------------------|
A|-6666666666666666\33333333-4-----------------------------------------------|
E|-4444444444444444\11111111-------------------------------------------------|
                           L.R-----------

  Bridge(bit before end chorus)
e|---------------------------------------------------------------------------|
B|---------------------------------------------------------------------------|
G|-8------6------------------------------------------------------------------|
D|-8-etc--6-etc--6-----------------------------------------------------------|
A|-6------4------6-etc-------------------------------------------------------|
E|---------------4-----------------------------------------------------------|
  
  At the last chorus let the G# chord ring x2 and then play nothing.

  Order:

  Intro
  Verse
  Bit before chorus
  Chorus
  Verse
  Bridge
  Bit before chorus
  Last chorus

===============================================================================
Johnny quest thinks we're sellouts

This is a classic ltj song and probably the best song. If you want the bass tabs
here it is correct. (thanx who ever tabbed the bass for this, they got it spot on)


 Intro
e|-4-x-4-x-4-x-4-x-4-x-4-x-4-x-4----------------------------------------------|
B|-5-x-5-x-5-x-5-x-4-x-4-x-4-x-4----------------------------------------------|
G|-6-x-6-x-6-x-6-x-5-x-5-x-5-x-5----------------------------------------------|
D|-6-x-6-x-6-x-6-x-6-x-6-x-6-x-6----------------------------------------------|
A|-4-x-4-x-4-x-4-x-6-x-6-x-6-x-6----------------------------------------------|
E|-4-x-4-x-4-x-4-x-4-x-4-x-4-x-4----------------------------------------------|
  
  Solo ( Bit when Horns Stop after Intro ) Play Fast and mute in between
  sometimes. Use up and down strokes.
e|-4------4-------------------------------------------------------------|
B|-5------4-------------------------------------------------------------|
G|-6-etc--5-etc---------------------------------------------------------|
D|-6------6-------------------------------------------------------------|
A|-4--------------------------------------------------------------------|
E|-4--------------------------------------------------------------------|

  Verse ( the same as the intro just played alot faster )
e|-4-x-4-x-4-x-4-x-4-x-4-x-4-x-4----------------------------------------------|
B|-5-x-5-x-5-x-5-x-4-x-4-x-4-x-4----------------------------------------------|
G|-6-x-6-x-6-x-6-x-5-x-5-x-5-x-5----------------------------------------------|
D|-6-x-6-x-6-x-6-x-6-x-6-x-6-x-6----------------------------------------------|
A|-4-x-4-x-4-x-4-x-6-x-6-x-6-x-6----------------------------------------------|
E|-4-x-4-x-4-x-4-x-4-x-4-x-4-x-4----------------------------------------------|
                   G#major
 Chorus ( end verse with G#major )

e|---------------------------------------------------------------------------|
B|---------------------------------------------------------------------------|
G|-3-3---------6-6-6-6-------------------------------------------------------[
D|-3-3-4-4-4-4-6-6-6-6-6-6-6-6-----------------------------------------------[
A|-1-1-4-4-4-4-4-4-4-4-6-6-6-6-----------------------------------------------[
E|-----2-2-2-2---------4-4-4-4-----------------------------------------------[

 Solo ( The Chorus chords are played to back up the Horns )

e|---------------------------------------------------------------------------[
B|---------------------------------------------------------------------------[
G|-3-3---------6-6-6-6-------------------------------------------------------[
D|-3-3-4-4-4-4-6-6-6-6-6-6-6-6-----------------------------------------------[
A|-1-1-4-4-4-4-4-4-4-4-6-6-6-6-----------------------------------------------[
E|-----2-2-2-2---------4-4-4-4-----------------------------------------------[

  Solo ( Played on horns but here it is anyway ) I'm not sure about the bends

e|---------------------------------------------------------------------------[
B|---------------------------------------------------------------------------[
G|---------------------------------------------------------------------------[
D|-3-3----3-3----3-3----3-3--------------------3-3----3-3--------------------[
A|----4-4b---6-6b---4-4b---6-6b--1-1/-4-444/-6----4-4b---6b------------------[
E|---------------------------------------------------------------------------[
 
  End With
e|-4-4-4--4-4-4-4-4----------------------------------------------------------|
B|-6-6-4--6-6-4-4-4----------------------------------------------------------|
G|-5-5-6--5-5-6-6-6----------------------------------------------------------|
D|-5-5-5--5-5-5-5-5----------------------------------------------------------|
A|-4-4-5--4-4-5-5-5----------------------------------------------------------|
E|-4-4-4--4-4-4-4-4----------------------------------------------------------|

| /  slide up
| \  slide down
| h  hammer-on
| p  pull-off
| ~  vibrato
| +  harmonic
| x  Mute note

Oh yeah I just remembered this song comes before Krazy Glue, Oh well.
===============================================================================

Never Going back to New Jersey

This is quite a good song with a funny/dodgy intro (that kind of folk bit at the
start-whatever you wanna call it) anyway it's a pretty easy song to play and it
only involves a few chords.

  Intro(not the bit at the very start that would just be crazy)
  Stab the chords.It's to hard for me to note the timing of the guitar with
  the horns and guitar so you'll have to figure it out yourself.
e|----------------|
B|----------------|
G|-5--------------|
D|-5-3------------|
A|-3-3------------|             *=stab chord
E|---1------------|
   C F

  Verse (ska style, so try to make it sound jumpy,I think there's mutes inbetween to.)
e|--3-3-333-3-3-3-3-1-1-111-1-1-1-1------------------------------------------|
B|--5-5-555-5-5-5-5-1-1-111-1-1-1-1------------------------------------------|
G|--5-5-555-5-5-5-5-2-2-222-2-2-2-2------------------------------------------|
D|--5-5-555-5-5-5-5-3-3-333-3-3-3-3------------------------------------------|
A|---------------------------------------------------------------------------|
E|---------------------------------------------------------------------------|
    C               F


  Chorus (this is the same chord figuration as the song before but in a different place.)
                           Last time(never goin back again)
e|---------------------------------------------------------------------------|
B|---------------------------------------------------------------------------|
G|-2------------5---------------------------------2------------3-------------|
D|-2-etc--3-----5-etc--5--------------------------2-etc-3------3-etc---------|
A|-0------3-etc-3------5-etc----------------------0-----3-etc--1-------------|
E|--------1------------3--------------------------------1--------------------|
                                                        *

  End (cool bit/kind of guitar solo) use distort
e|---------------------------------------------------------------------------|
B|---------------------------------------------------------------------------|
G|---------------5-----------------------------------------------------------|
D|---2-2-2-3-2---5-----------------------------------------------------------|
A|-33-3-3------5-3-----------------------------------------------------------|
E|---------------------------------------------------------------------------|
                 C
 
Then thats basically the whole song apart from the interlude which is exactly
the same as the verse.
===============================================================================

Hows my Driving?

I like the ska punk style to this song all though the melody isn't as good as their
other songs, actually what am I talkin about that's wat punk supposed to be like.
Anyway this tab's only average because the speed is really fast and it's not

Intro/Verse (The intro is 
played a lot faster than the chorus) 
E|---6---4---6---6---|
B|---6---4---8---6---|
G|---7---5---8---7---|
D|---8---6---8---8---|
A|-------------------|
E|-------------------|
    A#  G#  D#  A#


  Bridge
E|---4---4-----------|
B|---4---6-----------|
G|---5---6-----------|
D|---6---6-----------|
A|-------------------|
E|-------------------|
     G#  C#
 
  Chorus
E|---4---4---2---4---|
B|---4---6---2---6---|
G|---5---6---3---6---|
D|---6---6---4---6---|
A|-------------------|
E|-------------------|
    G#  C#  F#  C#


===============================================================================

Just like frank

Theres already a decent tab for this on the website so I'll just have to give you the chords. 
e|---------------------------------------------------------------------------|
B|---------------------------------------------------------------------------|
G|-7-----4-----9-------------------------------------------------------------|
D|-7--2--4--7--9--5----------------------------------------------------------|
A|-5--2--2--7--7--5----------------------------------------------------------|
E|----0-----5-----3----------------------------------------------------------|

   D  E  B  A  E* G -chord names                      
                         .= amount of times chord played
Intro/chorus             LR= let ring
                         *=Higher version of chord
                         !=stab chord


 D.LR       A.LR  E*.LR           G.LR   
 Just like anyone, He's just like anybody 

 D.LR       A.LR  E*.LR    G........ D.
 Just like anyone oh, he's just like Frank.


 Then go straight into this:

 D  . . .   A   . . .
 I know it, he knows it,

 E  . . .  G  . . . . . . . . 
 I'ts just pathetic what you say. 
              x2(second time lyrics are changed slightly)

 
 Then:

 E . . . .   G  . . . .         D . . . .           A . . . .
 When someone likes you,and they like you , and they like you.

 E.LR             G.LR           D. . . .      A . . . .
 They don't always mean what they say.
                      (Just beleive it, Just believe it.)


 Interlude

 D.LR
 I saw him walkin out that day,bout thursday just the other day.

 D.LR           A!  G . . . . . . . .   A . . . . . . . .
 Why dosen't he understand___________________________________
                    (You keep changing in what you beleive in.)


Then theres some crazy/amzing solos, but if you wanna have a go at them theres
another tab for this song. Thanx.
Ask the magic 8 ball.

This is a nice clean ska song. Although it's kind of ruined by the distorted power
chords anyway, it's a great song and here's the tab:

  power chords        Ska chords (s=ska)
e|---------------------5--3--5-----------------------------------------------|
B|---------------------5--3--7-----------------------------------------------|
G|----------7----------6--4--7-----------------------------------------------|
D|-7--5--2--7----------7--5--7-----------------------------------------------|
A|-7--5--2--5----------7--5--5-----------------------------------------------|
E|-5--3--0-------------5--3--5-----------------------------------------------|
   A  G  E  D          As Gs Ds

  Intro ( let the chords ring )

A
What the F***, the F*** have I become?

G
Another product of the sun?

D
Caught in this semi-circle

E  D
To become the stupidess man in the world.


 Verse

 As              Gs                   Ds              Gs       As
 Chuck one up to experience, yeah you know it dosen't make any sense.

                          Gs                 Ds             As      
 Do it all over again and again, again, yeah do it all over again.

 ( sorry but I can't remember all of the lyrics but it's the same chord figuration all the way through )

 Bridge (wicked ska bit on the guitar)

e|-5-----7-----5-------------------------------------------------------------|
B|-5-----8-etc-5-etc---------------------------------------------------------|
G|-6-----7-----7-------------------------------------------------------------|
D|-7-etc---------------------------------------------------------------------|
A|-7-------------------------------------------------------------------------|
E|-5-------------------------------------------------------------------------|

Interlude (bit with horns and what seems to be bongo drums)

e|--5-5-5---5-5-5---7-7-7----9--9--10-10--9--9-7-7-7--7---5------------------|
B|--5-5-5---7-7-7---9-9-9---10-10--10-10-10-10-9-9-9--9---7------------------|
G|--6-6-6---7-7-7---9-9-9----9--9---9--9--9--9-9-9-9--9---7------------------|
D|--7-7-7---5-5-5---7-7-7----------------------------------------------------|
A|--7-7-7---5-5-5---7-7-7----------------------------------------------------|
E|--5-5-5---5-5-5---7-7-7----------------------------------------------------|


=============================================================================

=============================================================================

Jen dosen't like me anymore
                             L.R=Play once + let ring
                               ,= number of times chord played and if there is
                                  no , that means the chord is played as many 
                                  times as it can.      
  Chords 
e|---------------------------------------------------------------------------|
B|---------------------------------------------------------------------------|
G|----8--7-------------------------------------------------------------------|
D|-8--8--7--6--5--3----------------------------------------------------------|
A|-8--6--5--6--5--3----------------------------------------------------------|
E|-6--------4--3--1----------------------------------------------------------|
   A# D# D  G# G  F


Intro

A#L.R                      D#:,                 ,,D:,   
Jen thinks it isn't fair that I don't really care,

A#L.R              F    G# 
If she likes me or not, 1 2 3 4

Verse

A#
Now Jen dosen't like to settle, 

D#                                D:,                            
She treats me like Harry Reynolds yeah,

A#             F            A#    
She thinks I'm old and I've got.


Chorus

A#                D#
No Jen, she don't like me anymore,
 
A#      G#  G    G#
No Jen_________, she don't like me anymore.




Bridge (first couple of times you just stab A#)

A#
Jen, Jen, Jen____________

G
Jen, Jen, Jen____________

D#               C               D#        D:,
Jen______ No she dosen't f****** like me anymore.


=============================================================================

Rock-n-roll Pizzeria

Weird name for a cool song. Use upstrokes + downstrokes.


  Intro (played really fast)
e|---------------------------------------------------------------------------|
B|---------------------------------------------------------------------------|
G|------------11----9--------------------------------------------------------|
D|-9-----7----11-x3-9-x3-----------------------------------------------------|
A|-9-x16-7-x8--9----7--------------------------------------------------------|
E|-7-----5-------------------------------------------------------------------|

  Verse
e|---------------------------------------------------------------------------|
B|---------------------------------------------------------------------------|
G|-------9-----------9-------------------------------------------------------|
D|-9-----9-x4--7-----9-x4----------------------------------------------------|
A|-9-x4--7-----7-x4--7-------------------------------------------------------|
E|-7-----------5-------------------------------------------------------------|


  Pre-Chorus ("I'm on my way")
e|---------------------------------------------------------------------------|
B|---------------------------------------------------------------------------|
G|------------9--------------------------------------------------------------|
D|-9----7-----9-x9-----------------------------------------------------------|
A|-9-x8-7-x8--7--------------------------------------------------------------|
E|-7----5--------------------------------------------------------------------|

  Chorus
e|---------------------------------------------------------------------------|
B|---------------------------------------------------------------------------|
G|--------------------4-x4---------------------------------------------------|
D|--------------------2------------------------------------------------------|
A|-9-x4--7--x4--4-x4---------------------------------------------------------|
E|-7-----5------2------------------------------------------------------------|

  End bit
e|---------------------------------------------------------------------------|
B|---------------------------------------------------------------------------|
G|---------------------------------------------------------------------------|
D|-9-9-8-6---9---------------------------------------------------------------|
A|-9-7-6-4-9-9---------------------------------------------------------------|
E|-7-------7-7---------------------------------------------------------------|

 Not a hard song to play or to figure it out but that's the whole song.


===============================================================================

Lockdown

This is a great song to finish the album. Not at all ska but who cares.

  Intro
e|--------------|------------------------------------------------------------|
B|--------------|------------------------------------------------------------|
G|--------------|---------2-2-2-2-2-2-2-2------------------------------------|
D|-2-~~~~-4-6-2-|-2-2-2-2-2-2-2-2-2-2-2-2-4-4-4-4----------------------------|
A|-2-~~~~-4-6-2-|-2-2-2-2-0-0-0-0-0-0-0-0-4-4-4-4--x2------------------------|
E|-0-~~~~-2-4-0-|-0-0-0-0-----------------2-2-2-2----------------------------|

  Verse
e|---------4-----------------4----------------4------------------------------|
B|-----------5-----------------5----------------5----------------------------|
G|-------------4-----------------4----------------4-----2-2-2-2-2-2-2-2------|
D|-2---------------2-----------------2------------------2-2-2-2-2-2-2-2------|
A|-2---------------2-----------------2------------------0-0-0-0-0-0-0-0------|
E|-0---------------0-----------------0---------------------------------------|
L.R:-------         -------           -------

  Chorus               On last time:
e|-------------------|-------------------------------------------------------|
B|-------------------|-------------------------------------------------------|
G|-------4-----2-----|--4----------------------------------------------------|
D|-2-----4-x4--2-x4--|--4-(0n the end)---------------------------------------|
A|-2-x8--2-----0-----|--2----------------------------------------------------|
E|-0-----------------|-------------------------------------------------------|

  Interlude          on last time (on end):
e|-----------------|---------------------------------------------------------|
B|-----------------|---------------------------------------------------------|
G|------4----2-----|--4-4-2--------------------------------------------------|
D|-2----4-x4-2-x4--|--4-4-2--------------------------------------------------|
A|-2-x8-2----0-----|--2-2-0--------------------------------------------------|
E|-0---------------|---------------------------------------------------------|

  End bit
e|---------------------------------------------------------------------------|
B|---------------------------------------------------------------------------|
G|---------------------------------------------------------------------------|
D|-4-4-2---------------------------------------------------------------------|
A|-4-4-2-x4------------------------------------------------------------------|
E|-2-2-0---------------------------------------------------------------------|

  End on
e|---------------------------------------------------------------------------|
B|---------------------------------------------------------------------------|
G|-4-------------------------------------------------------------------------|
D|-4-------------------------------------------------------------------------|
A|-2-------------------------------------------------------------------------|
E|---------------------------------------------------------------------------|

Thanx a lot I hope you think this tab is decent and if not send some corrections or comments.
--------------------------------------------------------------------------------
comments
print report bad tab
2 comments total.
0 reply
feesk8ordie wrote on April 13 2005, 12:00 am

messy tab

0 reply
Musicislife539 wrote on March 18 2007, 08:23 am

DUDE! YOU FORGOT DOPEMAN!

other than that really good tab. like awesome. but a bit hope-crushing because i figured out i still cant play krazy glue.

I want to post or [tab]
guest
You may want to rate the tab now too:
select rating
Please do not post tabs as comments. Select "correction" instead!