Oops, an error
Loading. Please wait.

Esther Fe Tab

ver1
ver1

Whole song

More versions @911Tabs.com
1,419 views 1 this week
no commentswrite comment
1 2 3 4 5
excellent!
x 1
Autoscroll
+/-
esc
set tempo
stop
Contributor
Hey! There's an official Ultimate Guitar app which is ideal
for learning songs when you're away from computer. Get the app
WARNING: You are trying to view
                                    content from Ultimate-Guitar.com
                                    in an unauthorized application,
                                    which is prohibited.

                                    Please use an official Ultimate
                                    Guitar Tabs application for iPhone,
                                    iPad or Android to access legitimate
                                    chords, guitar, bass, and drum tabs
                                    from Ultimate-Guitar.com database.

                                    Type "ultimate guitar tabs" in Apple
                                    App Store's or Android Market's
                                    search to find the application.
Esta es la vercion original saven ke yo solo koloko verciones akustiakas y si no son 
se las busko para ustedes : troonix_sk8@msn.com
Acordes

       DO               1             2
  E-----0-------  E-----0------  E----0------|
  B-----1-------  B-----1------  B----0------|
  G-----0-------  G-----0------  G----0------|
  D-----2-------  D-----2------  D----2------|
  A-----3-------  A------------  A----3------|
  E-------------  E------------  E----3------|

        3               4        ARPEGIO
  E-----2-------  E-----0------- E-0-0-0-----|
  B-----3-------  B-----3------- B-1h3---3---|
  G-----4-------  G-----2------- G-----------|
  D-------------  D-----0------- D-----------|
  A-------------  A-----2------- A-----------|
  E-------------  E------------- E-----------|

  INTRO

  E-0----0--2--0--0-0-0---0----------2----2----------|
  B-1----0--3--1—-1h3---3-1-0h1-0----3------3-0h1-0--|
  G-0----0--4--0----------0----------4--4------------|
  D-2--2-------2----------2-------2------------------|
  A-3--3-------3------------------3------------------|
  E----3--------------------------3------------------|

   DO                   2
  Caminar con la misma piel
          3           DO
  Sin el sol en tu rostro
   1                         2      3
  Y recorrer con tus mismos pies
            DO
  Hacia a donde iras

  DO  2  3  DO

   DO                               2
  Y vuelvo a andar sobre el mismo riel
           3                 DO
  Contra el viento de la noche   arpegio
    1                      2
  Y me acerco mas al final

  3       DO
  Ya no puedo esperarte
    4        MIm      SOL
  Y creo en ti
             RE
  Voz de madrugada
   4  MIm     SOL
  Y soñar despertar
          RE        DO
  En tus ojos y solo poder jurar
               MIm
  Que estaré bien

     DO     SOL    DO        SOL   LAm
  E------7-------------------------------------------|
  B-5/7-----8----------------------------------------|
  G----------------2/4—4h5-4--2----4h5-4--2----------|
  D------------------------------2------------2------|
  A--------------------------------------------------|
  E--------------------------------------------------|

   DO                                2
  Y vuelvo a andar sobre el mismo riel
              3            DO
  Y el recuerdo de esta noche  arpegio
  1                    2
  Y me acerco mas al final
  3       DO
  Ya no puedo esperar
   4        MIm
  Y creo en ti
        SOL      RE
  En tu voz de madrugada
   4  MIm    SOL
  Y soñar despertar
      RE         DO
  En tus ojos y solo poder jurar
              MIm
  Que estaré bien

     DO    SOL   DO  SOL  Am                       MIm
  E--5------7-------------------------------------------|
  B----5-------8--5---3---1-----1-----1-----0h1-0-------|
  G------5------------------2-----2-----2----------2----|
  D---------------------------2-----2-----2----------2--|
  A---------------3---2---------------------------------|
  E-----------------------------------------------------|
            DO  SOL  DO  SOL  DO  SOL  Am
  E------------------------------------------------------|
  B------3--3h5--3---8---12---5---3----1-----1-----1-----|
  G-4--5---------------------------------2-----2-----2---|
  D----------------------------------------2-----2-----2-|
  A-------------------7---10---3---2---------------------|
  E------------------------------------------------------|

            MIm
  E----------------------|
  B—0h1-0----------------|
  G-------2--------------|
  D---------2------------|
  A----------------------|
  E----------------------|

   RE        MIm
  Y creo en ti
        SOL           RE
  En tu voz en la madrugada
   4  MIm       SOL
  Y soñar despertar
          RE          DO
  En tus ojos y solo poder jurar
     4          MIm     SOL
  Que creo en ti
             RE
  Voz de madrugada
   4  MIm      SOL
  Y  soñar despertar
          RE      DO
  En tus ojos y solo poder jurar

  Que estaré bien

  E--0----------|
  B--0----------|
  G--0----------|
  D--2----------|
  A-------------|
  E-------------|

  NOTA : en las partes de y solo poder jurar la primera
  Guitarra se queda en do y la segunda la baja así

  E--0--0--0--0-----------|
  B--1--3--1--3-----------|
  G--0--0--0--0-----------|
  D--2--4--2--4-----------|
  A--3--5--3--5-----------|
  E-----------------------|
comments
We did not receive enough feedback on this tab! Please rate:
print report bad tab
1 2 3 4 5
I want to post or [tab]
guest
You may want to rate the tab now too:
select rating
Please do not post tabs as comments. Select "correction" instead!