Oops, an error
Loading. Please wait.

Hanging By A Moment Tab

ver6
16,095 views 24 this week
4 commentsread comments
1 2 3 4 5
worth learning
x 3
Autoscroll
+/-
esc
set tempo
stop
Contributor
Difficulty
novice
Hey! There's an official Ultimate Guitar app which is ideal
for learning songs when you're away from computer. Get the app
WARNING: You are trying to view
                                    content from Ultimate-Guitar.com
                                    in an unauthorized application,
                                    which is prohibited.

                                    Please use an official Ultimate
                                    Guitar Tabs application for iPhone,
                                    iPad or Android to access legitimate
                                    chords, guitar, bass, and drum tabs
                                    from Ultimate-Guitar.com database.

                                    Type "ultimate guitar tabs" in Apple
                                    App Store's or Android Market's
                                    search to find the application.
This is a text version of the complete and perfect guitar version for the lead of 
"Hanging by a moment"
Have fun!

              E  E  E  E  E  E  E  E     E  E  E  E  E  E  E  E
D#||-------|--------------------------|--------------------------|
A#||-------|--------------------------|--------------------------|
F#||-------|--------------------------|--------------------------|
C#||-------|--------0--2--L--0--------|--------0-----5--4--0-----|
G#||-------|-----0-----------------0--|-----0-----0-----------0--|
C#||-------|--0-----------------0-----|--0-----------------------|


  E  E  E  E  E  E  E  E     E  E  E  E  E  E  E  E
--------------------------|--------------------------|
--------------------------|--------------------------|
--------------------------|--------------------------|
--------0--2-----0--------|--------0-----5--4--0-----|
-----0-----------------0--|-----0-----0-----------0--|
--0-----------0-----0-----|--0-----------------------|


  E  E  E  E  E  E  E  E     E  E  E  E  E  E  E  E
--------------------------|--------------------------|
--------------------------|--------------------------|
--------------------------|--------------------------|
--------0--2-----0--------|--------------5--4--0-----|
-----0-----------------0--|--L--0-----0-----------0--|
--0-----------0-----0-----|--------0-----------------|


  E  E  E  E  E  E  E  E     E  E  E  E  E  E  E  E
--------------------------|--------------------------|
--------------------------|--------------------------|
--------------------------|--------------------------|
--------0--2-----0--------|--2-----0-----5--4--0-----|
-----0-----------------0--|-----------0-----------0--|
--0-----------0-----0-----|-----0--------------------|


  E  E  E  E  E  E  E  E     E  E  E  E  E  E  E  E     E  E  E  E  E  Q    E
--------------------------|--------------------------|-------------------------|
--------------------------|--------------------------|-------------------------|
--------------------------|--------------------------|-------------------------|
--------0--2-----0--------|--------0-----5--4--0-----|--------0--2--L--4----0--|
-----0-----------------0--|--L--0-----0-----------0--|-----0-------------------|
--0-----------0-----0-----|--------------------------|--0----------------------|


    NH
    W                   Q    Q    E  Q    E     E  E  Q    E  E  E  E
---------------------|-----------------------|-------------------------|
---------------------|-----------------------|-------------------------|
---------------------|-----------------------|-------------------------|
---------------------|--0----0----0--2----4--|--L--4--4----4--2--0-----|
--<>5----------------|-----------------------|----------------------0--|
---------------------|-----------------------|-------------------------|


  Q    Q    E  Q    E     E  E  Q    E  E  E  E     Q    Q    E  Q    E
-----------------------|-------------------------|-----------------------|
-----------------------|-------------------------|-----------------------|
-----------------------|-------------------------|-----------------------|
--0----0----0--2----4--|--L--4--4----4--2--0-----|--0----0----0--2----4--|
-----------------------|----------------------0--|-----------------------|
-----------------------|-------------------------|-----------------------|


  E  E  Q    E  E  E  E     Q    Q    E  Q    E     Q    E  E  E  Q    E
-------------------------|-----------------------|------------------------|
-------------------------|-----------------------|------------------------|
-------------------------|-----------------------|------------------------|
--L--4--4----4--2--0-----|--0----0----0--2----0--|-------0--2--L--0-------|
----------------------0--|-----------------------|---------------------0--|
-------------------------|-----------------------|--0---------------------|


  E  E  E  E  E  E  Q       Q    E  E  E  Q    E     E  E  E  E  E  E  Q
-------------------------|------------------------|-------------------------|
-------------------------|------------------------|-------------------------|
-------------------------|------------------------|-------------------------|
--------0-----5--4--0----|-------0--2--L--0-------|--------0-----5--4--0----|
--L--0-----0-------------|---------------------0--|--L--0-----0-------------|
-------------------------|--0---------------------|-------------------------|


  Q    E  E  E  Q    E     E  E  E  E  E  E  Q       Q    E  E  E  Q    E
------------------------|-------------------------|------------------------|
------------------------|-------------------------|------------------------|
------------------------|-------------------------|------------------------|
-------0--2--L--0-------|--------0-----5--4--0----|-------0--2--L--0-------|
---------------------0--|--L--0-----0-------------|---------------------0--|
--0---------------------|-------------------------|--0---------------------|


  E  E  E  E  E  E  Q       Q    E  E  E  Q    E     E  E  E  E  E  E  Q
-------------------------|------------------------|-------------------------|
-------------------------|------------------------|-------------------------|
-------------------------|------------------------|-------------------------|
--------0-----5--4--0----|-------0--2--L--0-------|--------0-----5--4--0----|
--L--0-----0-------------|---------------------0--|--L--0-----0-------------|
-------------------------|--0---------------------|-------------------------|


  Q    E  E  E  Q    E     E  E  E  E  E  E  Q       Q    E  E  E  Q    E
------------------------|-------------------------|------------------------|
------------------------|-------------------------|------------------------|
------------------------|-------------------------|--7----7--7--L--6-------|
-------0--2--L--0-------|--------0-----5--4--0----|---------------------7--|
---------------------0--|--L--0-----0-------------|------------------------|
--0---------------------|-------------------------|------------------------|


  H.           Q       H        E  Q    E     H        E  E  E  E
--------------------|----------------------|-----------------------|
--------------------|----------------------|-----------------------|
--------------------|----------------------|-----------7--6--6-----|
--L------------9----|----------------------|--------------------9--|
--------------------|--9--------L--7----9--|--L--------------------|
--------------------|----------------------|-----------------------|


  Q    E  E  E  Q    E     H        E  E  E  E     Q    E  E  E  Q    E
------------------------|-----------------------|------------------------|
------------------------|-----------------------|------------------------|
------------------------|-----------------------|------------------------|
--9----9--9--L--7-------|-----------------------|------------------------|
---------------------9--|--L--------9--7--7--7--|--9----9--9--L--7----5--|
------------------------|-----------------------|------------------------|


  W                   Q    E  E  E  Q    E     H.           Q
-------------------|------------------------|--------------------|
-------------------|------------------------|--------------------|
-------------------|--7----7--7--L--6-------|--------------------|
-------------------|---------------------7--|--L------------9----|
--L----------------|------------------------|--------------------|
-------------------|------------------------|--------------------|


  H        E  Q    E     H        E  E  E  E     Q    E  E  E  Q    E
----------------------|-----------------------|------------------------|
----------------------|-----------------------|------------------------|
----------------------|-----------7--6--6-----|------------------------|
----------------------|--------------------9--|--9----9--9--L--7-------|
--9--------L--7----9--|--L--------------------|---------------------9--|
----------------------|-----------------------|------------------------|


  H        E  E  E  E     Q    E  E  E  Q    E     W
-----------------------|------------------------|-------------------|
-----------------------|------------------------|-------------------|
-----------------------|------------------------|-------------------|
-----------------------|------------------------|-------------------|
--L--------9--7--7--7--|--9----9--9--L--7----5--|--L----------------|
-----------------------|------------------------|-------------------|


  E  E  E  E  E  E  E  E     E  E  E  E  E  E  E  E
--------------------------|--------------------------|
--------------------------|--------------------------|
--------------------------|--------------------------|
--------------------------|--------------------------|
--------5--5--------5--5--|--------5--5--------5--5--|
--5--5--------4--5--------|--5--5--------4--5--------|


  E  E  E  E  E  E  Q         E  E  E  E  E  E  E  E
---------------------------|--------------------------|
---------------------------|--------------------------|
---------------------------|--------------------------|
--------7--7--------4br----|--------7--7--------------|
--5--5--------5--5---------|--5--5--------5--5--------|
---------------------------|--------------------0--0--|


  E  E  E  E  E  E  E  E     E  E  E  E  E  E  E  E
--------------------------|--------------------------|
--------------------------|--------------------------|
--------------------------|--------------------------|
--------------------------|--------------------------|
--------5--5--------5--5--|--------5--5--------5--0--|
--5--5--------4--5--------|--5--5--------4--5--------|


  E  E  E  E  E  E  E  E     E  E  E  E  Q      E  E
--------------------------|---------------------------|
--------------------------|---------------------------|
--4--4--4--4--4--4--4--4--|--4--4--4--4---------------|
--4--4--4--4--4--4--4--4--|--4--4--4--4---------------|
--2--2--2--2--2--2--2--2--|--2--2--2--2--4br----2--0--|
--------------------------|---------------------------|


  E  E  E  E  E  E  E  E     E  E  E  E  E  E  E  E
--------------------------|--------------------------|
--------------------------|--------------------------|
--------------------------|--------------------------|
--5--5--5--5--5--5--5--5--|--7--7--7--7--7--7--7--7--|
--5--5--5--5--5--5--5--5--|--7--7--7--7--7--7--7--7--|
--5--5--5--5--5--5--5--5--|--7--7--7--7--7--7--7--7--|


  E  E  E  E  E  E  E  E     E  E  E  E  Q      E  E
--------------------------|---------------------------|
--------------------------|---------------------------|
--------------------------|---------------------------|
--2--2--2--2--2--2--2--2--|--2--2--2--2---------------|
--2--2--2--2--2--2--2--2--|--2--2--2--2--4br----2--0--|
--2--2--2--2--2--2--2--2--|--2--2--2--2---------------|


  E  E  E  E  E  E  E  E     E  E  E  E  E  E  E  E
--------------------------|--------------------------|
--------------------------|--------------------------|
--------------------------|--------------------------|
--5--5--5--5--5--5--5--5--|--7--7--7--7--7--7--7--7--|
--5--5--5--5--5--5--5--5--|--7--7--7--7--7--7--7--7--|
--5--5--5--5--5--5--5--5--|--7--7--7--7--7--7--7--7--|


  E  E  E  E  E  E  E  E     E  E  E  E  Q      E  E
--------------------------|---------------------------|
--------------------------|---------------------------|
--------------------------|---------------------------|
--2--2--2--2--2--2--2--2--|--2--2--2--2---------------|
--2--2--2--2--2--2--2--2--|--2--2--2--2--4br----2--0--|
--2--2--2--2--2--2--2--2--|--2--2--2--2---------------|


  E  E  E  E  E  E  E  E     E  E  E  E  E  E  E  E     W
--------------------------|--------------------------|-------------------|
--------------------------|--------------------------|-------------------|
--------------------------|--------------------------|--0----------------|
--5--5--5--5--5--5--5--5--|--7--7--7--7--7--7--7--7--|--2----------------|
--5--5--5--5--5--5--5--5--|--7--7--7--7--7--7--7--7--|--2----------------|
--5--5--5--5--5--5--5--5--|--7--7--7--7--7--7--7--7--|--2----------------|


  W                   E  E  E  E  E  E  E  E     E  E  E  E  E  E  E  E
-------------------|--------------------------|--------------------------|
-------------------|--------------------------|--------------------------|
--L----------------|--------------------------|--------------------------|
--L----------------|--------0--2--L--0--------|--------0-----5--4--0-----|
--L----------------|-----0-----------------0--|-----0-----0-----------0--|
--L----------------|--0-----------------0-----|--0-----------------------|


  E  E  E  E  E  E  E  E     E  E  E  E  E  E  E  E
--------------------------|--------------------------|
--------------------------|--------------------------|
--------------------------|--------------------------|
--------0--2-----0--------|--------0-----5--4--0-----|
-----0-----------------0--|-----0-----0-----------0--|
--0-----------0-----0-----|--0-----------------------|


  E  E  E  E  E  E  E  E     E  E  E  E  E  E  E  E
--------------------------|--------------------------|
--------------------------|--------------------------|
--------------------------|--------------------------|
--------0--2-----0--------|--------------5--4--0-----|
-----0-----------------0--|--L--0-----0-----------0--|
--0-----------0-----0-----|--------0-----------------|


  E  E  E  E  E  E  E  E     E  E  E  E  E  E  E  E
--------------------------|--------------------------|
--------------------------|--------------------------|
--------------------------|--------------------------|
--------0--2-----0--------|--2-----0-----5--4--0-----|
-----0-----------------0--|-----------0-----------0--|
--0-----------0-----0-----|-----0--------------------|


  E  E  E  E  E  E  E  E     E  E  E  E  E  E  E  E     E  E  E  E  E  Q    E
--------------------------|--------------------------|-------------------------|
--------------------------|--------------------------|-------------------------|
--------------------------|--------------------------|-------------------------|
--------0--2-----0--------|--------0-----5--4--0-----|--------0--2--L--4----0--|
-----0-----------------0--|--L--0-----0-----------0--|-----0-------------------|
--0-----------0-----0-----|--------------------------|--0----------------------|


                               NH
  E  E  E  E  E  E  E  E       W                   W
--------------------------|---------------------|-------------------|
--------------------------|---------------------|-------------------|
--------------------------|---------------------|-------------------|
--L--0--0-----5--4--0-----|---------------------|-------------------|
-----------0-----------0--|--<>5----------------|--L----------------|
--------------------------|---------------------|-------------------|


  Q    E  E  E  Q    E     H.           Q       H        E  Q    E
------------------------|--------------------|----------------------|
------------------------|--------------------|----------------------|
--7----7--7--L--6-------|--------------------|----------------------|
---------------------7--|--L------------9----|----------------------|
------------------------|--------------------|--9--------L--7----9--|
------------------------|--------------------|----------------------|


  H        E  E  E  E     Q    E  E  E  Q    E     H        E  E  E  E
-----------------------|------------------------|-----------------------|
-----------------------|------------------------|-----------------------|
-----------7--6--6-----|------------------------|-----------------------|
--------------------9--|--9----9--9--L--7-------|-----------------------|
--L--------------------|---------------------9--|--L--------9--7--7--7--|
-----------------------|------------------------|-----------------------|


  Q    E  E  E  Q    E     W                   Q    E  E  E  Q    E
------------------------|-------------------|------------------------|
------------------------|-------------------|------------------------|
------------------------|-------------------|--7----7--7--L--6-------|
------------------------|-------------------|---------------------7--|
--9----9--9--L--7----5--|--L----------------|------------------------|
------------------------|-------------------|------------------------|


  H.           Q       H        E  Q    E     H        E  E  E  E
--------------------|----------------------|-----------------------|
--------------------|----------------------|-----------------------|
--------------------|----------------------|-----------7--6--6-----|
--L------------9----|----------------------|--------------------9--|
--------------------|--9--------L--7----9--|--L--------------------|
--------------------|----------------------|-----------------------|


  Q    E  E  E  Q    E     H        E  E  E  E     Q    E  E  E  Q    E
------------------------|-----------------------|------------------------|
------------------------|-----------------------|------------------------|
------------------------|-----------------------|------------------------|
--9----9--9--L--7-------|-----------------------|------------------------|
---------------------9--|--L--------9--7--7--7--|--9----9--9--L--7----5--|
------------------------|-----------------------|------------------------|


  W                   Q    E  E  E  Q    E     H.           Q
-------------------|------------------------|--------------------|
-------------------|------------------------|--------------------|
-------------------|--7----7--7--L--6-------|--------------------|
-------------------|---------------------7--|--L------------9----|
--L----------------|------------------------|--------------------|
-------------------|------------------------|--------------------|


  H        E  Q    E     H        E  E  E  E     Q    E  E  E  Q    E
----------------------|-----------------------|------------------------|
----------------------|-----------------------|------------------------|
----------------------|-----------7--6--6-----|------------------------|
----------------------|--------------------9--|--9----9--9--L--7-------|
--9--------L--7----9--|--L--------------------|---------------------9--|
----------------------|-----------------------|------------------------|


  H        E  E  E  E     Q    E  E  E  Q    E     W
-----------------------|------------------------|-------------------|
-----------------------|------------------------|-------------------|
-----------------------|------------------------|-------------------|
-----------------------|------------------------|-------------------|
--L--------9--7--7--7--|--9----9--9--L--7----5--|--L----------------|
-----------------------|------------------------|-------------------|


-------------------||
-------------------||
-------------------||
-------------------||
-------------------||
-------------------||
comments
We did not receive enough feedback on this tab! Please rate:
print report bad tab
1 2 3 4 5
4 comments total. Showing first comments.
0 reply
nightshade101 wrote on May 20 2007, 03:08 am

can you please put in which parts are the verses and chorus and stuff and what does the L mean

0 reply
ShaneOmac066 wrote on May 31 2007, 05:15 pm

wut the hell does L mean haha

0 reply
guitars4all wrote on June 25 2007, 03:40 pm

yea wat is L...idk im kinda havin trouble understandin whats goin on in this song

I want to post or [tab]
guest
You may want to rate the tab now too:
select rating
Please do not post tabs as comments. Select "correction" instead!