Oops, an error
Loading. Please wait.

Nookie Tab

ver7
ver7
More versions @911Tabs.com
3,759 views 1 this week
no commentswrite comment
1 2 3 4 5
worth learning
x 2
Autoscroll
+/-
esc
set tempo
stop
Contributor
Hey! There's an official Ultimate Guitar app which is ideal
for learning songs when you're away from computer. Get the app
WARNING: You are trying to view
                                    content from Ultimate-Guitar.com
                                    in an unauthorized application,
                                    which is prohibited.

                                    Please use an official Ultimate
                                    Guitar Tabs application for iPhone,
                                    iPad or Android to access legitimate
                                    chords, guitar, bass, and drum tabs
                                    from Ultimate-Guitar.com database.

                                    Type "ultimate guitar tabs" in Apple
                                    App Store's or Android Market's
                                    search to find the application.
Guitar: Six String

Artist: Limp Bizkit

Album: Significant Other (1999)

Song: Nookie

Tuning: (C#,G#,C#,F#,A#,D#)

I. Intro

clean (Repeat 4x)

C#---------------------------|
G#---------------------------|
C#---------------------------|
F#----------13----------13---|
A#-5/11-5-x-11---5/11-5-11-5-|
D#-5/11-5-x----5-5/11-5----5-|

distorted (Repeat 8x)

C#------------------------|
G#------------------------|
C#--------8----------8----|
F#-3--5-x-6--5\3--5--6--5-|
A#-3--5-x-6--5\3--5--6--5-|
D#-3--5-x-6--5\3--5--6--5-|

II. Riff

clean (Repeat 8x)

C#---------------------|
G#---------------------|
C#---------------------|
F#-----5h6p5------5----|
A#---------------------|
D#-5----------5------5-|

clean (Repeat 4x)

C#--------------------|
G#--------------------|
C#--------------------|
F#---14----13----13---|
A#---11----10----10---|
D#--------------------|

III. "Like A Chump" Riff

clean (Repeat 4x)

C#---------------------------------|
G#---------------------------------|
C#---------------------------------|
F#-----5-----5-----5-----5-----5-6-|
A#---------------------------------|
D#-5-5---5-5---5-5---5-5---5-5-----|

clean (Repeat 4x)

C#-x-x-x-x-x-x-x-x-x-x-x-x-x-x-x-x-|
G#---------------------------------|
C#---------------------------------|
F#---------------------------------|
A#---------------------------------|
D#---------------------------------|

IV. Chorus

distorted (Repeat 8x)

C#------------------------|
G#------------------------|
C#--------8----------8----|
F#-3--5-x-6--5\3--5--6--5-|
A#-3--5-x-6--5\3--5--6--5-|
D#-3--5-x-6--5\3--5--6--5-|

Lyrics:

I came into this world as a reject 
Look into these eyes
Then you'll see the size of these flames
Dwellin on the past
Its burnin' up my brain
Everyone that burns has to learn from the pain
Hey I think about the day
My girlie ran away with my pay
When fellas come to play
No she stuck with my homeez that she fucked
And I'm just a sucker with a lump in my throat
Hey, like a chump
Should I be feelin' bad? No
Should I be feelin good? No
Its kinda sad I'm the laughin' stock of the neighborhood
You would think that I'd be movin' on
But I'm a sucker like I said
Fucked up in the head, not!!
Maybe she just made a mistake
I should give her a break
My heart will ache either way
Hey, what the hell
Watcha want me to say
I wont lie that I cant deny

[Chorus]
I did it all for the nookie
C'mon
The nookie 
C'mon
So you can take that cookie
And stick it up your, yeah!!
Stick it up your, yeah!!
Stick it up your, yeah!!
Why did it take so long?
Why did I wait so long, huh
To figure it out? but I did it
And I'm the only one underneath the sun who didn't get it
I cant believe that I can be deceived
By my so called girl, but in reality
Had hidden agenda
She put my tender heart in a blender
And still I surrendered
Hey, like a chump 

[chorus]

I'm only human
Its so easy for your friends to give you their advice
They tell you to let it go
But its easier said then done
I appreciate it
I do, but just leave me alone
Leave me alone
Just leave me alone!!
Just leave me alone!
Aint nothin' gonna change
If you can go away
Im just gonna stay here and always be the same
Aint nothin' gonna change
If you can go away
Im just gonna stay here and always be the same
Aint nothin' gonna change
If you can go away
Im just gonna stay here and always be the same

[Chorus]
comments
We did not receive enough feedback on this tab! Please rate:
print report bad tab
1 2 3 4 5
I want to post or [tab]
guest
You may want to rate the tab now too:
select rating
Please do not post tabs as comments. Select "correction" instead!