Oops, an error
Loading. Please wait.

Results May Vary Tab

7,171 views 18 this week
3 commentsread comments
1 2 3 4 5
accurate
x 8
Autoscroll
+/-
esc
set tempo
stop
Contributor
Hey! There's an official Ultimate Guitar app which is ideal
for learning songs when you're away from computer. Get the app
WARNING: You are trying to view
                                    content from Ultimate-Guitar.com
                                    in an unauthorized application,
                                    which is prohibited.

                                    Please use an official Ultimate
                                    Guitar Tabs application for iPhone,
                                    iPad or Android to access legitimate
                                    chords, guitar, bass, and drum tabs
                                    from Ultimate-Guitar.com database.

                                    Type "ultimate guitar tabs" in Apple
                                    App Store's or Android Market's
                                    search to find the application.
LIMp bizkit results may vary album


all songs except track #6 "almost over", # 8 "red light green light",
#13 "creamer radio is dead"

there are two tunings one is the standard bizkit tuning three half steps down
and drop b tuning which is the standard bizkit 
tuning just drop the c# one more step

thor/Artist: Limp Bizkit
Title: Reentry

Tuning: C#-F#-B-E-G#-C#


  Intro: w/heavy dist.
 |------------------------------------------------|
 |------------------------------------------------|x2
 |------------------------------------------------|
 |-7-7---------------------5----------------------|
 |-5-5-6p5p0-5p0-5p0-6p5p0-3--6p5p0-5p0-5p0-6p5p0-|
 |------------------------------------------------|

  Fill.1: w/heavy dist
 |----------|
 |----------|
 |-10---9---|
 |---9---8--|
 |----8---7-|
 |----------|

  Verse: w/dist
 |-----------------------------15--------------|
 |---------------15-------------------------15-|
 |-12------------------------------------------|
 |---------------------------------------------|
 |---------------------------------------------|
 |---------------------------------------------|


 |---|
 |---|
 |-7-|end chord
 |-7-|
 |-5-|
 |---|


Limp Bizkit
Results May Vary
Eat You Alive
C# F# B E G# c#


intro
C#|-----------------------------------------------------------------------|
G#|--------------0--------------0--------------0----------0---------------|
E |----------0---0----------0---0----------0---0----------0---------------|
B |----------0---0----------0---0----------0---0----------0---------------|
F#|----4-4-4-5---5----4-4-4-5---5----4-4-4-5---5----4-4-4-5---------------|
C#|--0h2-2-2-3-0-3--0h2-2-2-3-0-3--0h2-2-2-3-0-3--0h2-2-2-3---------------|


chorus
heavy distortion
C#|------------------------------------------------------------------------|
G#|----------0---0----------0---0----------0---0----------0----------------|
E |----------0---0----------0---0----------0---0----------0----------------|
B |----4-4-4-5---5----4-4-4-5---5----4-4-4-5---5----4-4-4-5----------------|
F#|----4-4-4-5---5----4-4-4-5-2-5----4-4-4-5-2-5----4-4-4-5----------------|
C#|--0h2-2-2-3-0-3--0h2-2-2-3-0-3--0h2-2-2-3-0-3--0h2-2-2-3----------------|


verse
C#|-----------------------------------------------------------------------|
G#|-----------------------------------------------------------------------|
E |-----------------------------------------------------------------------|
B |-----------------------------------------------------------------------|
F#|----4-4-4-5-2-4----4-4-4----------4-4-4-5-2-4--2-4-4-4-----------------|
C#|--0-2-2-2-3-0-2--0-2-2-2--------0-2-2-2-3-0-2--0-2-2-2-----------------|
pm   . . . . . . .  . . . .        . . . . . . .  . . . .


pre chorus
               /b/              /b/              /b/               /b/
C#|-----------------------------------------------------------------------|
G#|-----------------------------------------------------------------------|
E |---1111111111^1111--1111111111^1111--1111111111^1111--1111111111^1111--|
B |----x-x-x-x-x--x-x---x-x-x-x-x--x-x---x-x-x-x-x--x-x---x-x-x-x-x--x-x--|
F#|----9-9-9-9-9^-9-9---9-9-9-9-9^-9-9---9-9-9-9-9^-9-9---9-9-9-9-9^-9-9--|
C#|-----------------------------------------------------------------------|


chorus

verse

prechorus

chorus


chorus 2
C#|----------------------------------------------------------------------|
G#|----------------------------------------------------------------------|
E |--------------------111111--------------------------------------------|
B |--7-7-7-7-7-7-9-9-9--x-x-x---4-4-4-4-4-4-4-4-4-4-4-4------------------|
F#|--5-5-5-5-5-5-7-7-7--9-9-9---4-4-4-4-4-4-4-4-4-4-4-4------------------|
C#|-----------------------------2-2-2-2-2-2-2-2-2-2-2-2------------------|


C#|----------------------------------------------------------------------|
G#|----------------------------------------------------------------------|
E |--------------------111111--------------------------------------------|
B |--7-7-7-7-7-7-9-9-9--x-x-x---4----------------------------------------|
F#|--5-5-5-5-5-5-7-7-7--9-9-9---4~~~~~~~---------------------------------|
C#|-----------------------------2~~~~~~~---------------------------------|



bass interlude



interlude
clean w/light delay
C#|---------------------------------------------------------------------|
G#|--------15------------15-----------15------------15------------------|
E |-----14----14------14-----------14----14------14---------------------|
B |--12-------------------------------------------------12-14-----------|
F#|---------------15-----------14------------15-------------------------|
C#|---------------------------------------------------------------------|


interlude
phaser & distortion
C#|-----------------------------------------------------------------------|
G#|--------15----------------15--------------15----------------15---------|
E |-----14----------------14--------------14----------------14------------|
B |--12-------12-12h14-12--------12-14-12-------12-12h14-12-------12-14---|
F#|-----------------------------------------------------------------------|
C#|-----------------------------------------------------------------------|


chorus 2


fill
C#|------------------------------|
G#|--------------0----------0----|
E |----------0---0----------0----|
B |----------0---0----------0----|
F#|----4-4-4-5---5----4-4-4-5----|
C#|--0h2-2-2-3-0-3--0h2-2-2-3----|


main


end
C#|-------------------------------------|
G#|----------0---0----------0-----------|
E |----------0---0----------0-----------|
B |----4-4-4-5---5----4-4-4-5---5--4----|
F#|----4-4-4-5---5----4-4-4-5---5--4----|
C#|--0h2-2-2-3-0-3--0h2-2-2-3-0-3--2----|

  
 

Author/Artist: Limp Bizkit
Title: Gimme The Mic
Album: Results May Vary
Tuning: B-F#-B-E-G#-C# (low to high)


  Intro: w/heavy dist
 |--------------------------------------------------|
 |--------------------------------------------------|
 |--------------------------------------------------|
 |--------------------------------------------------|
 |-1-0--1-0-1--1-0--1-0-1--1-0--1-0-1--1--0-1-0-1-0-|
 |-1-0--1-0-1--1-0--1-0-1--1-0--1-0-1--1--0-1-0-1-0-|


  Fill: w/heavy dist
  'hold up'  
 |-----------------------|
 |-----------------------|
 |-----------------------|
 |-----------------------|
 |------------------0-1--|
 |------------------0-1--|
                                                                             
  Pre Chouorus: w/dist
 |-------------------------------------|
 |-------------------------------------|
 |-------------------------------------|
 |-7-7-7-7-7-7-7-7-7-7-7-7-7-7-8-8-8-8-|
 |-5-5-5-5-5---------5-5-5-5-5---------|
 |-------------------------------------|

                                                                              
  Chorus: w/heavy dist
 |-----------------------|
 |-----------------------|
 |-----------------------|
 |-2---2-------02-2------|
 |-2---2-3-3---02-2-3-3--|
 |-2---2--2-2--02-2--2-2-|
                                                                              
  Interlude: w/heavy dist
 |----------------------------------|
 |----------------------------------|
 |----------------------------------|
 |----------------------------------|
 |--------------1--0--1--0----------|
 |-1-1-1-1-1-1--1--0--1--0-1--1-1-1-|

                                                                              
  end riff: w/heavy dist
 |-------|
 |-------|
 |-------|
 |--0-2--|
 |--0-2--|
 |--0-2--|



 Limp bizkit
Results may vary
Underneath the gun

C# F# B E G# C#



bass intro


intro
C#|----3-2-2~~----------------3-2-2~~-------------------3-2-2~~-------------------3-2-2~~|
G#|----3-3-3~~----------------3-3-3~~-------------------3-3-3~~-------------------3-3-3~~|
E |----2-2-2~~----------------2-2-2~~-------------------2-2-2~~-------------------2-2-2~~|
B |----0-0-0~~----------------0-0-0~~-------------------0-0-0~~-------------------0-0-0~~|
F#|--------0~~--------------------0~~-----------------------0~~-----------------------0~~|
C#|--------------------------------------------------------------------------------------|


verse
C#|---3-2-2~~----|
G#|---3-3-3~~----|
E |---2-2-2~~----|
B |---0-0-0~~----|
F#|-------0~~----|
C#|--------------|


chorus I         fill
C#|--------------|---3-2-2~~----|unsure about chorus 1
G#|---8-----10---|---3-3-3~~----|but sounds close enuff
E |---7------9---|---2-2-2~~----|
B |---x------x---|---0-0-0~~----|
F#|---8-----10---|-------0~~----|
C#|--------------|--------------|


chorus II                                                         fill
C#|-------------------------------------------------------------| |---------------|
G#|-------------------------------------------------------------| |---------------|
E |------------------------------------5*-7*-7*-----------------| |---------------|
B |-------7-7-5------7-7-5------7-7-5--5*-7*-7*--5--------------| |---5-----------|
F#|---5-5-5-5\3--5-5-5-5\3--5-5-5-5\3------------3-------5------| |---3-----5~----|
C#|------------------------------------------------------3------| |---------3~----|
pm    . .        . .        . .


solo
w/delay & distortion
C#|--------------------------------------------------------------------------------------------------------------|
G#|-------------------------------------------------------------17-19-20~-20-19-17-19-20~-19-17-19-20-19-17------|
E |s12~~--11~~--11-11-11-11h12-12-12-12-12s14-14-14-17-17s19-17---------------------------------------------19-19|
B |--------------------------------------------------------------------------------------------------------------|
F#|--------------------------------------------------------------------------------------------------------------|
C#|--------------------------------------------------------------------------------------------------------------|


fill
C#|-------------------------------------|
G#|--20~~20--------20-20~~--------------|
E |---------19-19~--------19-19~--------|
B |-------------------------------------|
F#|-------------------------------------|
C#|-------------------------------------|


chorus III
C#|--20-19-17----17---------------------------------------------------|
G#|-----------20----20-19-17----17------------------------------------|
E |--------------------------19----19-17-19^19^-19p17----17----17-19--|
B |---------------------------------------------------19----19--------|
F#|-------------------------------------------------------------------|
C#|-------------------------------------------------------------------|


fill                                      fill
C#|--20-19-17----17---------------------| |--20-19-17----17-----------------------|
G#|-----------20----20-19-17----17------| |-----------20----20-19-17----17--------|
E |--------------------------19----19---| |--------------------------19----19-17--|
B |-------------------------------------| |---------------------------------------|
F#|-------------------------------------| |---------------------------------------|
C#|-------------------------------------| |---------------------------------------|


bridge
C#|----------------------------------------------------|
G#|----------------------------------------------------|
E |----------------------------------------------------|
B |-10---------9s10---------9s10---------7-7-7-7-7-7---|
F#|--8-8-8-8-8-7s-8-8-8-8-8-7s-8-8-8-8-8-5-5-5-5-5-5---|
C#|----------------------------------------------------|
pm     . . . .      . . . .      . . . . . . . . . .


breakdown                            fill
C#|--0--------0----------0--------|  |-------------------------|
G#|--0--------0----------0--------|  |-------------------------|
E |--2--------6----------6~~^~~---|  |---11-----13---14--------|
B |--2--------4----------7--------|  |----x------x----x--------|
F#|--0--------2----------5--------|  |----9-----11---12--------|
C#|-------------------------------|  |-------------------------|

limp bizkit
Title: Down Another Day
Tuning: standard bizkit tuning 3 half steps down (c# f# b e g# c#)

Intro/verse: 
------------------------------------------------------------------------------
------------------------------------------------------------------------------
--------------------------7------7--------------------------------------------
--------5----7----9----9-----9--------------5----7---9-9h10r9------------------
----7------7---7------------------------7------7---7--------------------------
--5---5-------------------------------5---5-----------------------------------
  

chorus: 
------------------------------------------------------------------------------
------------------------------------------------------------------------------
-------7-------7-----------5-------5------------------------------------------
-----7---7---7---7-x2----7---7---7---7-x2-------------------------------------
---5-------5-----------5-------5----------------------------------------------
------------------------------------------------------------------------------
    
bridge: 
------------------------------------------------------------------------------
------------------------------------------------------------------------------
------------------------------------------------------------------------------
-----7-7-7-7-7-7-7-7-7-7-7-7-7-7-7-7-7-7-7-7-7-7-7-7-7-7-7-7-7-7-7-/-10-\-7-x5-
------------------------------------------------------------------------------
------------------------------------------------------------------------------
      on the 3rd time use distortion

 Limp Bizkit
Build A Bridge
results may vary
C#,F#,B,E,G#,C#
tabber: korotz

verse                                                                            gII verse
C#|-----------------------------------------------------------------------| |----------------|
G#|-----------------------------------------------------------------------| |------------12*-|
E |----------0---------------0----------------0-----------------0---------| |-5*-------------|
B |----4-0-----0---0---5-0-----0---0-----0------0----------0------0-------| |------5*--------|
F#|--2-----2-----2---3-----3-----3-----5-------------5---5-------------5--| |----------------|
C#|----------------------------------3-----3-------3---3-----3-------3----| |----------------|


pre-chorus
C#|---------------------------------------------------------------------------|
G#|---------------------------------------------------------------------------|
E |---------------------------------------------------------------------------|
B |------9-----9-----9-----9-----9-----7-----7-----7-----7-----7--------------|
F#|----7-----7-----7-----7-----7-----5-----5-----5-----5-----5----------------|
C#|--5-----5-----5-----5-----5-----3-----3-----3-----3-----3------------------|


chorus I                            fill
C#|-------------------------------| |-----------------------------------------|
G#|-------------------------------| |-----------------------------------------|
E |--9----------7------------6----| |---9-----------7----------6--------------|
B |--6----------4------------5----| |---6-----------4----------5-----7--------|
F#|--7----------5------------7----| |---7-----------5----------7--------------|
C#|--------------------------5----| |--------------------------5--------------|


breakdown
C#|------------------------------------------------------------------------------------------|
G#|------------------------------------------------------------------------------------------|
E |------------------------------------------------------------------------------------------|
B |--7-7-7-7--7-7-7-7-7-7--7-7-5-5-5-5--5-5-4-4-4-4-4-4--7-7-7-7--7-7-7-7-7-7--7-7-5----4----|
F#|--5-5-5-5--5-5-5-5-5-5--5-5-3-3-3-3--3-3-2-2-2-2-2-2--5-5-5-5--5-5-5-5-5-5--5-5-3----2----|
C#|------------------------------------------------------------------------------------------|
pm   . . . .  . . . . . .  . . . . . .  . . . . . . . .  . . . .  . . . . . .  . .


chorus II
C#|--2-----0-----7-------2-----0-----7----|
G#|--2-----0-----7-------2-----0-----7----|
E |--3-----1-----8-------3-----1-----8----|
B |--4-----2-----9-------4-----2-----9----|
F#|--4-----2-----9-------4-----2-----9----|
C#|--2-----0----s7-------2-----0----s7----|

Limp Bizkit
Results May Vary
The Only One

B,F#,B,E,G#,C#




intro
C#|-----------------------------------------------------------------|
G#|-----------------------------------------------------------------|
E |---------------------11-11---------------------11-11-------------|
B |----------------------x--x----------------------x--x-------------|
F#|--3-5-6-5-3-5-5-3-0---9--9--3-5-6-5-3-5-5-3-0---9--9-------------|
B |--3-5-6-5-3-5-5-3-0---0--0--3-5-6-5-3-5-5-3-0---0--0-------------|

C#|-----------------------------------------------------------------|
G#|-----------------------------------------------------------------|
E |---------------------11-11---------------------11-11-------------|
B |----------------------x--x----------------------x--x-------------|
F#|--3-5-6-5-3-5---3-0---9--9--3-5-6-5-3-5---3-0---9--9-------------|
B |--3-5-6-5-3-5---3-0---0--0--3-5-6-5-3-5---3-0---0--0-------------|


verse
C#|-----------------------------------------------------------------|
G#|-----------------------------------------------------------------|
E |-----------------------------------------------------------------|
B |-----------------------------------------------------------------|
F#|--3-5-6-5-3-5-5-3-0--s9--9--3-5-6-5-3-5-5-3-0--s9--9-------------|
B |--3-5-6-5-3-5-5-3-0---0-----3-5-6-5-3-5-5-3-0---0----------------|
pm   . . . . . .   .           . . . . . .   .

C#|-----------------------------------------------------------------|
G#|-----------------------------------------------------------------|
E |-----------------------------------------------------------------|
B |-----------------------------------------------------------------|
F#|--3-5-6-5-3-5---3-0--s9--9--3-5-6-5-3-5---3-0--s9--9-------------|
B |--3-5-6-5-3-5---3-0---0-----3-5-6-5-3-5---3-0---0----------------|
pm   . . . . .     .           . . . . .     .


chorus
C#|---------------------------------------------------------------------------------|
G#|---------------------------------------------------------------------------------|
E |--17--s19--16--------------------s11-11--17--s19--16---------------------s11-11--|
B |---x----x---x----------------------x--x---x----x---x-----------------------x--x--|
F#|--15--s17--14---3-5-6-5-3-5--3-0--s9--9--15--s17--14---3-5-6-5-3-5-5-3-0--s9--9--|
B |----------------3-5-6-5-3-5--3-0---0--0----------------3-5-6-5-3-5-5-3-0---------|


breakdown
C#|-----------------------------------------------------------------|
G#|-----------------------------------------------------------------|
E |-----14----16^--------12p11-12----14----16^--------12p11-12------|
B |--12-----------10--------------12-----------10-------------------|
F#|-----------------------------------------------------------------|
B |-----------------------------------------------------------------|


solo
w/delay
C#|-----------------------------------------------------------------|
G#|-----------------------------------------------------------------|
E |------------------------------------------14---17-16-------------|
B |--10-9-10-10--10-9-10-9-10-10--10-9-10s12------------17----------|
F#|-----------------------------------------------------------------|
B |-----------------------------------------------------------------|


bridge
C#|-----------------------------------------------------------------|
G#|-----------------------------------------------------------------|
E |-----------------------------------------------------------------|
B |-----------------------------------------------------------------|
F#|-----------------------------------------------------------------|
B |--3-5-6-5-3h5--3-0--00--0--3-5-6-5-3h5--3-0--00--0---------------|

C#|----------------------------------------------------------------------------------|
G#|----------------------------------------------------------------------------------|
E |----------------------------------------------------------------------------------|
B |----------------------------------------------------------------------------------|
F#|--12-14-15--s17--14-------------------------12-14-15--s17--14---------------------|
B |---------0--------0--3-5-6-5-3h5--3-0--00-0--------0--------0--3-5-6-5-3-5-5-3-0--|

Song: "Let Me Down"
Artist: limpbizkit
Album: results may vary

Tuning: Drop B,  (B,F#,B,E,G#,C#)

verse about halfway through
|---------------------|-------------------------------------------------------|
|---------------------|-------------------------------------------------------|
|-7-6-9-7-6/7-6/7--x3-|-9-7-6-7-6/7-6/7---------------------------------------|
|---------------------|-------------------------------------------------------|
|---------------------|-------------------------------------------------------|
|---------------------|-------------------------------------------------------|

prechorus - good enough to be with me
|-----------------------------------------------------------------------------|
|-----------------------------------------------------------------------------|
|-7-7-7-6-6-6-7-7-7-6-6-6-7-7-6-6---------------------------------------------|
|-7-7-7-6-6-6-7-7-7-6-6-6-7-7-6-6---------------------------------------------|
|-5-5-5-4-4-4-5-5-5-4-4-4-5-5-4-4---------------------------------------------|
|-----------------------------------------------------------------------------|
chorus - just throw it all away
|-----------------------------------------------------------------------------|
|-----------------------------------------------------------------------------|
|-----------------------------------------------------------------------------|
|-7-7-7-7-7-7-7-7-7-4-4-4-4-5-5-5-5/4-----------------------------------------|
|-7-7-7-7-7-7-7-7-7-0-0-0-0-0-0-0-0-0-----------------------------------------|
|-7-7-7-7-7-7-7-7-7-0-0-0-0-0-0-0-0-0-----------------------------------------|

bridge one i would like to thank u
|-----------------------------------------------------------------------------|
|-----------------------------------------------------------------------------|
|-----------------------------------------------------------------------------|
|-5--5--5--4--4--4--5--5--5--7--7--7------------------------------------------|
|-0--0--0--0--0--0--0--0--0--0--0--0------------------------------------------|
|-----------------------------------------------------------------------------|
bridge that goes into final chorus
|-----------------------------------------------------------------------------|
|-----------------------------------------------------------------------------|
|-----------------------------7-7-7-6-6-6-7-7-7-6-6-6-7-6---------------------|
|-----------------------------7-7-7-6-6-6-7-7-7-6-6-6-7-6---------------------|
|-5-5-5-4-4-4-5-5-5-4-4-4-5-4-5-5-5-4-4-4-5-5-5-4-4-4-5-4---------------------|
|-----------------------------------------------------------------------------|
PM. . . . . . . . . . . . . .

repeatchorus 2 times then end on
|-----------------------------------------------------------------------------|
|-----------------------------------------------------------------------------|
|-----------------------------------------------------------------------------|
|-7~--------------------------------------------------------------------------|
|-7~--------------------------------------------------------------------------|
|-7~--------------------------------------------------------------------------|

Limp Bizkit
Results May Vary
Lonely World
C# F# B E G# C#


verse
w delay
C#|-----------------------------------------------------------------|
G#|-----------------------------------------------------------------|
E |---14-16-17-16-14-16----14-16-17-16-14-16----14-16-17-14-16------|
B |-----------------------------------------------------------------|
F#|-----------------------------------------------------------------|
C |-----------------------------------------------------------------|


verse
C#|-----------------------------------------------------------------|
G#|-----------------------------------------------------------------|
E |---14-16-17-16--14-16-17-16--14-16-17-16--14-16------------------|
B |-----------------------------------------------------------------|
F#|-----------------------------------------------------------------|
C |-----------------------------------------------------------------|


chorus
distortion w/delay
C#|-----------------------------------------------------------------|
G#|-----------------------------------------------------------------|
E |-----------------------------------------------------------------|
B |-----------------------------------------------------------------|
F#|--7-9-10-9-7-9--7-9-10-9-7-9--7-9-10-9-7-9--7-9-10-9-7-9--7-9----|
C |-----------------------------------------------------------------|

Author/Artist: Limp Bizkit
Title: Phenomenon
Album: Results May Vary
Tuning: B-F#-B-E-G#-C#  ( low to high )

  Intro: w/heavy dist
 |-----------------------------------------------------------|
 |-----------------------------------------------------------|
 |-----------------------------------------------------------|
 |-----------------------------------------------------------|
 |-----------------------------------------------------------|
 |-0-13p12p0-12-13p12p0-12-0-13p12p0-12-12p10p0-10p0-10p8p0--|
                                                                              
  Verse: w/clean tone
 |----------------|
 |----------------|
 |-16-16-16-15-16-|
 |-18-18-18-17-18-|
 |-17-17-17-16-17-|
 |----------------|

   Verse.Fill: w/clean tone
 |----------------|
 |----------------|
 |-16p15p14-15----|
 |----------------|
 |----------------|
 |----------------|

  Riff A: w/heavy dist
 |---------------------------------------------------------------------|
 |---------------------------------------------------------------------|
 |---------------------------------------------------------------------|
 |-7-7-10-10-10-10-10-7-7-10-10-10-10-10-7-7-10-10-10-10-10-7-7-7-5-8--|
 |-7-7----------------7-7----------------7-7----------------7-7-7-5-8--|
 |-7-7----------------7-7----------------7-7----------------7-7-7-5-8--|


 |---------------------------------------------------------------------|
 |---------------------------------------------------------------------|
 |---------------------------------------------------------------------|
 |-7-7-10-10-10-10-10-7-7-10-10-10-10-10-7-7-10-10-10-10-10-5-5-5-5-10-|
 |-7-7----------------7-7----------------7-7----------------5-5-5-5-10-|
 |-7-7----------------7-7----------------7-7----------------5-5-5-5-10-|
                                                                              
  Bridge: w/heavy dist
 |------------------------------------|-------------------------------------|
 |------------------------------------|-------------------------------------|
 |------------------------------------|-------------------------------------|
 |-0-0--------------------------------|-0-0---------------------------------|
 |-0-0--------------------------------|-0-0---------------------------------|
 |-0-0-10p0-0-10p0-12p10p0-10p0-12-12-|-0-0-10p0-0-10p0-12p10p0-12-12-10-10-|
                                                                              
Limp bizkit - Head For The Barricade (Results May Vary)
Tuning: Drop B (B F# B E G# C#)


   Intro: w/dist
C#|-----------------------------------------------||
G#|-----------------------------------------------||
 E|-----------------------------------------------||
 B|-----------------------------------------------||
F#|-5/6--------------------5/6--------------------||
 B|-----0--0-0--0--0-0--0------0--0-0--0--0-0--0--||
  PM    .  . .  .  . .  .      .  . .  .  . .  .


   Verse: w/dist
C#|-----------------------------------------------||
G#|-----------------------------------------------||
 E|-----------------------------------------------||
 B|-----------------------------------------------||
F#|-5/6--------------------5/6--------------------||
 B|-----0--0-0--0--0-0--0------0--0-0--0--0-0--0--||
  PM    .  . .  .  . .  .      .  . .  .  . .  .


   Chorus: w/heavy dist
C#|----------------------------------------------------||
G#|----------------------------------------------------||
 E|----------------------------------------------------||
 B|----------------------------------------------------||
F#|-0-3--3--5-3--0-3--3--5-3--0-3--3--5-3--0-3--3--5-3-||
 B|-0-3--3--5-3--0-3--3--5-3--0-3--3--5-3--0-3--3--5-3-||


C#|--------------||
G#|--------------||
 E|--------------||
 B|-7---7--8---8-||
F#|---6------6---||
 B|--------------||


C#|----------------------------------------------------||
G#|----------------------------------------------------||
 E|----------------------------------------------------||
 B|----------------------------------------------------||
F#|-0-3--3--5-3--0-3--3--5-3--0-3--3--5-3--0-3--3--5-3-||
 B|-0-3--3--5-3--0-3--3--5-3--0-3--3--5-3--0-3--3--5-3-||


C#|-------------------------------------||
G#|-------------------------------------||
 E|-------------------------------------||
 B|-7---7--8---8--7---7--8---8----------||
F#|---6------7------6------7------------||
 B|-------------------------------------||



   Interlude: w/heavy dist
C#|---------------------------||
G#|---------------------------||
 E|---------------------------||
 B|---------------------------||
F#|-----5-5---6-5---5h8-5h6p5-||
 B|-0-0-----0-----0-----------||
  PM. .     .     .

   Interlude.pt.2: w/heavy dist
C#|----------------------------------------||
G#|----------------------------------------||
 E|----------------------------------------||
 B|----------------------------------------||
F#|----------------------------------------||
 B|-0-0-0-14~-0-0-0-11~-0-0-0-10~-0-0-0-9~-||


   End Chord
C#|------------------||
G#|------------------||
 E|------------------||
 B|-7----------------||
F#|-5----------------||
 B|------------------||
Limp Bizkit

Behind Blue Eyes


intro
E-------0-----------0-----------0------------0---------------0--------------0-------
B------0-0---------3-3-------3----3-3-----3----3-3-------3-----3-3-------3----3-3---
G---------0-----------0-----2-2----2-----2-2----2---------0-----0---------0----0----
D----2-----2-----0-----0---0----------- 0--------------2---------------2------------
A---2-----------2-------------------------------------3---------------3-------------
E--0-----------3--------------------------------------------------------------------

--------0---------------0-------
-----0----0-0--------0----0-0---
------2----2----------2----2----
---2---------------2------------
--0---------------0-------------
--------------------------------




verse 1
E-------0-----------0-----------0------------0---------------0--------------0-------
B------0-0---------3-3-------3----3-3-----3----3-3-------3-----3-3-------3----3-3---
G---------0-----------0-----2-2----2-----2-2----2---------0-----0---------0----0----
D----2-----------0---------0----------- 0--------------2---------------2------------
A---2-----------2-------------------------------------3---------------3-------------
E--0-----------3--------------------------------------------------------------------

----0-0-0---0-------
----0-0-0---0-------
----2-2-2---2-------
----2-2-2---2-------
----0-0-0---0-------
----0-0-0---0-------



ALL OTHER VERSES ARE LIKE THE INTRO

cHORUS

  c    D    G    

 -0-  -0-  -0-  
 -1-  -3-  -3-  
 -0-  -2-  -0-  
 -2-  -0-  -0-  
 -3-  -0-  -2-  
 -0-  -0-  -3-    


  c    D    E    

 -0-  -0-  -0-    
 -1-  -3-  -0-    
 -0-  -2-  -1-    
 -2-  -0-  -2-    
 -3-  -0-  -2-    
 -0-  -0-  -0-   


  Bm    c

 -2-   -O-
 -3-   -1-
 -4-   -0-
 -4-   -2-
 -2-   -3-
 -2-   -0-

  D     A

 -0-   -0-    
 -3-   -0-
 -2-   -2-
 -0-   -2-
 -0-   -0-
 -0-   -0-c                                                                     

        CHORUS
       C  D                   G
But my dreams, they aren't as empty,
      C          D        E
As my conscience seems to be
       Bm           C
I have hours, only lonely
           D                      A
My love is vengeance that's never free
 
limpbizkit
drown
results may vary
B,F#,B,E,G#,C#


verse
w/light distortion
------------0-----------------0-------------0-----------2p0-----0---|
--------------0---0----2p0--------------------0---0-----------------|
--------3-------3----3-----3------------3-------3----3--------------|
------4-------------------------------4----------------------4------|
----4-------------------------------4-------------------------------|
--2-------------------------------2---------------------------------|

                                                                          fill
------------0-----------------0-----0------------0----0-------------|  |---3-------0-----0--|
--------------0---0----2p0------------0--------0----0---------------|  |---5-------5-----2--|
--------3-------3----3-----3-----4---------4------------------------|  |---4-------6-----3--|
------4----------------------------------5--------------------------|  |---x-------7-----4--|
----4---------------------------------------------------------------|  |---5-------7-----4--|
--2-----------------------------------------------------------------|  |---3-------5-----2--|


chorus                    ending
----0-----------3-----|   |------------------------------------------------|
----1-----------3-----|   |------------------------------------------------|
----0-----------0-----|   |----9------4-------2-------6---------4----------|
----2-----------0-----|   |----9------4-------2-------6---------4----------|
----3-----------------|   |----7------2-------0-------4---------2----------|
----------------3-----|   |----0-------------------------------------------|
comments
print report bad tab
3 comments total.
0 reply
Blinkrules828 wrote on October 11 2003, 12:00 am

its a very sloppy t ab but not to bad..take a little more time next time

0 reply
disclaimer wrote on November 17 2003, 12:00 am

almost good

0 reply
Inkinen wrote on April 24 2004, 12:00 am

Good work man, I have much plesure of this tab! thanks/ Mike Smith Fan!

I want to post or [tab]
guest
You may want to rate the tab now too:
select rating
Please do not post tabs as comments. Select "correction" instead!