Oops, an error
Loading. Please wait.

God You Reign Tab

ver2
ver2

Solo

Whole song

More versions @911Tabs.com
11,094 views 6 this week
no commentswrite comment
1 2 3 4 5
excellent!
x 7
Autoscroll
+/-
esc
set tempo
stop
Contributor
Hey! There's an official Ultimate Guitar app which is ideal
for learning songs when you're away from computer. Get the app
WARNING: You are trying to view
                                    content from Ultimate-Guitar.com
                                    in an unauthorized application,
                                    which is prohibited.

                                    Please use an official Ultimate
                                    Guitar Tabs application for iPhone,
                                    iPad or Android to access legitimate
                                    chords, guitar, bass, and drum tabs
                                    from Ultimate-Guitar.com database.

                                    Type "ultimate guitar tabs" in Apple
                                    App Store's or Android Market's
                                    search to find the application.
Tabbed by: Andrew Sondgeroth 
Email: asondgeroth@gmail.com

THE SOLO IN THIS TAB IS MORE ACCURATE THAN THE STANDALONE SOLO I SUBMITTED.  
(plus the text of my original submission got all chopped up and was missing words)

This is the first time I've ever tried to tab anything out. But, I really
needed this solo for church...so I took a stab at it. I'm sure I have some 
things wrong but it should get you most of the way there.

I used Transcribe! and Guitar Pro 5 to figure out most of the core notes. 
I played by feel and by ear (as best I could) for the rest of it.

Since I don't know how to read music, I was having a really hard time 
getting Guitar Pro to do what I wanted it to do. So, I figured I'd simply 
post the text file. That way, at least those of you out there that want the 
tab for this really cool solo will have it. If anyone out there is skilled 
enough, you can enter the text into PowerTab or Guitar Pro and post it up 
here.

The sections below are certainly not representative of actual measures. 
I simply tried to keep particular riffs together in a printable format.

I really enjoy Lincoln Brewster's music. I think he is very necessary in the 
realm of Christian music. There are many guitarists like myself that love
music like Metallica, Dream Theater, SRV, etc. but yearn to incorporate such 
styles into worship.

(Thank you, Lincoln!)

Enjoy the tab, all!


Song: God You Reign
Artist: Lincoln Brewster
Album: Today Is The Day


(Intro)
    D  Dsus D  Dsus  A     G  E F# D  E F# D A  E F# D  E F# D  D  Dsus  
e||-2--3----2--3-----5-(5)p3------------------------------------2--3----|
B||-3--3----3--3--------------5h7~----5h7~------5h7~----5h7~----3--3----|
G||-2--2----2--2-------------------7-------7---------7-------7--2--2----|
D||------------------------------------------7--------------------------|
A||---------------------------------------------------------------------|
E||---------------------------------------------------------------------|

(Verse 1)
    D               Dsus   D               Dsus                          D
      You paint the night    You count the stars and you call them by name
e||-2---------------3------2---------------3-----------------------------2--|
B||-3---------------3------3---------------3-----------------------------3--|
G||-2---------------2------2---------------2-----------------------------2--|
D||-------------------------------------------------------------------------|
A||-------------------------------------------------------------------------|
E||-------------------------------------------------------------------------|


   (D)             Dsus           D         A Dsus       
     The skies proclaim, God you reign    
e||(2)--------------3-------------2---------5-3------|
B||(3)--------------3-------------3-----------3------|
G||(2)--------------2-------------2-----------2------|
D||--------------------------------------------------|
A||--------------------------------------------------|
E||--------------------------------------------------|


    D             Dsus   D                Dsus                A   D
      Your glory shines     You teach the sun when to bring a new day
e||-2-------------3------2----------------3-------------------5---2-----|
B||-3-------------3------3----------------3-----------------------3-----|
G||-2-------------2------2----------------2-----------------------2-----|
D||---------------------------------------------------------------------|
A||---------------------------------------------------------------------|
E||---------------------------------------------------------------------|


    (D)            Dsus            F# E  F# E  F# E  F# E  F# E  F# E  F# E          
          Creation sings, God you reign    
e||-(2)------------3--------------------------------------------------------|
B||-(3)------------3---------------7--5--7--5--7--5--7--5--7--5--7--5--7--5-|
G||-(2)------------2--------------------------------------------------------|
D||-------------------------------------------------------------------------|
A||-------------------------------------------------------------------------|
E||-------------------------------------------------------------------------|


(Chorus)
    Go -d yo-u  rei - - - - - gn                    
    F# E  F# E  G  F# G  F# G  F# G  F# G  F# G  F#
e||-------------------------------------------------|
B||-7--5--7--5--8--7--8--7--8--7--8--7--8--7--8--7--|
G||-------------------------------------------------|
D||-------------------------------------------------|
A||-------------------------------------------------|
E||-------------------------------------------------|


    Go -d yo-u  rei - - - - - gn                   
    F# G  F# G  F# E  F# E  F# E  F# E  F# E  F# E  
e||-------------------------------------------------|
B||-8--7--8--7--7--5--7--5--7--5--7--5--7--5--7--5--|
G||-------------------------------------------------|
D||-------------------------------------------------|
A||-------------------------------------------------|
E||-------------------------------------------------|


    Forever and e - - - - - ve - - - - - -r -       God you rei-gn                
    F# E  F# E  A  G  A  G  A  G  A  G  G  F# G  F# G  F# G  F# D
e||-------------5--3--5--3--5--3--5--3--3--2--3--2--3--2--3--2--2--|
B||-7--5--7--5--------------------------------------------------3--|
G||-------------------------------------------------------------2--|
D||----------------------------------------------------------------|
A||----------------------------------------------------------------|
E||----------------------------------------------------------------|


(Verse 2)
    D              Dsus  D             Dsus                               D
      You part the seas   You move the mountains with the words that you say
e||-2--------------3-----2-------------3----------------------------------2-|
B||-3--------------3-----3-------------3----------------------------------3-|
G||-2--------------2-----2-------------2----------------------------------2-|
D||-------------------------------------------------------------------------|
A||-------------------------------------------------------------------------|
E||-------------------------------------------------------------------------|


   (D)        Dsus            D                
     My song remains, God you reign    
e||(2)--------3---------------2---------------7---------10----|
B||(3)--------3---------------3---------------8---------10----|
G||(2)--------2---------------2-------------------------------|
D||-----------------------------------------------------------|
A||-----------------------------------------------------------|
E||-----------------------------------------------------------|


    D             Dsus  A D            Dsus                     D
      You hold my life     You know my heart and you call me by name
e||-2-------------3-----5-2------------3------------------------2----|
B||-3-------------3-------3------------3------------------------3----|
G||-2-------------2-------2------------2------------------------2----|
D||------------------------------------------------------------------|
A||------------------------------------------------------------------|
E||------------------------------------------------------------------|


    (D)            Dsus            F# E E E  F# E E E  F# E E E  F# E E E       
         I live to say,  God you reign    
e||-(2)------------3--------------------------------------------------------|
B||-(3)------------3---------------7--5-5-5--7--5-5-5--7--5-5-5--7--5-5-5---|
G||-(2)------------2--------------------------------------------------------|
D||-------------------------------------------------------------------------|
A||-------------------------------------------------------------------------|
E||-------------------------------------------------------------------------|


(Chorus) (He plays a slight variation on the picking but uses the same notes)


(Bridge)
     F#    E    G    F#    F#    E    D
     Hal - le - lu - jah,  Hal - le - lu   
e||---------------------------------------|
B||--7-----5----8----7-----7-----5----3---|
G||---------------------------------------| (x4)
D||---------------------------------------|
A||---------------------------------------|
E||---------------------------------------|

(Chorus)
(Chorus)
(Chorus) (Solo - start with 3rd repeat of chorus)
(Chorus)

(Solo at 4:17)
e||--21b-21-19~----19h21-17----17h1914----19b-17---------------------|
B||----------------------------------------------19------------------|
G||------------------------------------------------------------------|
D||------------------------------------------------------------------|
A||------------------------------------------------------------------|
E||------------------------------------------------------------------|


e||---------------------------14-15-14-12~------12-14-15-14-12-------|
B||--17-17h22-19--17h22-19-------------------15----------------15\---|
G||------------------------------------------------------------------|
D||------------------------------------------------------------------|
A||------------------------------------------------------------------|
E||------------------------------------------------------------------|


e||-------------------------------------12---------------------------|
B||-15~~~-15~~~-15~~~-15~~~-15~~~-15~~~----15~~~-15~~~-15~~~---------|
G||------------------------------------------------------------------|
D||------------------------------------------------------------------|
A||------------------------------------------------------------------|
E||------------------------------------------------------------------|


e||------------------------------|
B||--15p12-----------------------|
G||--------14p12-----------------|
D||--------------14b-12----12~---|
A||---------------------14-------|
E||------------------------------|


e||--17-17-17p12-17p12---------12-|  e||-17p12---------12--|
B||-------------------15-14-15----|  B||-------15-14-15----|
G||-------------------------------|  G||-------------------| (repeat 8x)
D||-------------------------------|  D||-------------------|
A||-------------------------------|  A||-------------------|
E||-------------------------------|  E||-------------------|


e||--17-19b~~-17h19-21~--19-21-------14-15-14-12-----|
B||----------------------------19--------------------|
G||--------------------------------------------------|
D||--------------------------------------------------|
A||--------------------------------------------------|
E||--------------------------------------------------|


e||--15p14p12--15p14p12--15p14p12-----|
B||-----------------------------------|
G||-----------------------------------|
D||-----------------------------------|
A||-----------------------------------|
E||-----------------------------------|


e||------------------------------------|
B||--15p14p12--------------------------|
G||-----------14-12--------------------|
D||--------------------12~~~-----------|
A||-----------------14-----------------|
E||--------------------------0/(0)\----|


(Outro)  
e||--15p14-14-15p14-14-15p14-14-15p14-14--14p12-12-14p12-12-14p12-12-14p12-12-|
B||---------------------------------------------------------------------------|
G||---------------------------------------------------------------------------|
D||---------------------------------------------------------------------------|
A||---------------------------------------------------------------------------|
E||---------------------------------------------------------------------------|
comments
print report bad tab
I want to post or [tab]
guest
You may want to rate the tab now too:
select rating
Please do not post tabs as comments. Select "correction" instead!