Oops, an error
Loading. Please wait.

Walk On Tab

740 views 3 this week
no commentswrite comment
1 2 3 4 5
please rate
Autoscroll
+/-
esc
set tempo
stop
Contributor
Tuning
D# G# C# F# A# D#
Hey! There's an official Ultimate Guitar app which is ideal
for learning songs when you're away from computer. Get the app
WARNING: You are trying to view
                                    content from Ultimate-Guitar.com
                                    in an unauthorized application,
                                    which is prohibited.

                                    Please use an official Ultimate
                                    Guitar Tabs application for iPhone,
                                    iPad or Android to access legitimate
                                    chords, guitar, bass, and drum tabs
                                    from Ultimate-Guitar.com database.

                                    Type "ultimate guitar tabs" in Apple
                                    App Store's or Android Market's
                                    search to find the application.
Tuning: Eb  Ab  Db  Gb  Bb  Eb
(drop half key)


Intro:
|---------------0---|----3----0---0-----|-------------0---|-----0------0----0-|
|-----0h1----3----3-|-3----3----0---5\3-|-1---1----8----8-|-3-----3--6--6-5---|
|--------0-----2----|---0---------------|-------0----7----|---0-------5----5--|
|---2------0--------|-------------------|---2-------------|-------------------|
|-0-----------------|-------------------|-0---------------|-3--------5----3---|
|------------2------|-3-------4---------|----------7------|-------------------|

|-------------0-|
|-----1---0-----|
|---0---0-------|
|---------------|
|---------------|
|-3-------------|


Verse:
|---------------0---|----3----0---0-----|-------------0---|-----0------0----0-|
|-1---0h1----3----3-|-3----3----0---5\3-|-1---1----8----8-|-3-----3--6--6-5---|
|--------0-----2----|---0---------------|-------0----7----|---0-------5----5--|
|---2-----0---------|-------------------|---2-------------|-------------------|
|-0-----------------|-------------------|-0---------------|-3--------5----3---|
|------------2------|-3-------4---------|----------7------|-------------------|

|-------------0---|
|-----1---0-----0-|
|---0---0---0-----|
|-----------------|
|-----------------|
|-3---------------|

|---------------0---|----3----0---0-----|-------------0---|-----0-------------|
|-1---0h1----3----3-|-3----3----0---5\3-|-1---1----8----8-|-3-----3--6----5---|
|--------0-----2----|---0---------------|-------0----7----|---0--------5----5-|
|---2-----0---------|-------------------|---2-------------|-------------------|
|-0-----------------|-------------------|-0---------------|-3--------5----3---|
|------------2------|-3-------4---------|----------7------|-------------------|

|-------------0---|--------0----0----|
|-----1---0-----0-|----1--1--1---1---|
|---0---0---0-----|---0--0----0---0--|
|-----------------|-3----------3-----|
|-----------------|-----------------0|
|-3---------------|------------------|

Chorus:
|--------------3---|-------------------|-----3-------3----|----1---0----0----|
|-----3----------3-|-----0h1-------1---|-----1-------1--1-|----3----3----3---|
|---0---0----0-----|--------0--------0-|---0----0--0---0--|--2----2---2---2--|
|------------------|---2---------2-----|-3-----3-2--------|-0----------0-----|
|-3--------2-------|-0-----------------|------------------|-----------------0|
|------------------|---------0-3-------|------------------|------------------|

|-----3-3-----3-3-|-----0---------------|-----3-------3---|
|-----3-------3---|-----1---------1-----|-------1-------1-|
|---0--0----0--0--|--------0---------0--|---0-------0-----|
|-----------------|---2---2-----2-----2-|-3-------2-------|
|-3-------2-------|-0-------------------|-----------------|
|-----------------|-----------3---------|-----------------|

|---0----------0h1--------1p0----|
|-----3-----------3-----------3--|
|--2---2-----2-----2---2-------2-|
|-0------------------------------|
|--------------------------------|
|--------------------------------|

Verse:
|---------------0---|----3----0---0-----|-------------0---|---------------0---|
|-----0h1----3----3-|-3----3----0---5\3-|-1---1----8----8-|-3---3-----6-------|
|--------0-----2----|---0---------------|-------0----7----|---0--0-----5---5--|
|---2-----0---------|-------------------|---2-------------|-------------------|
|-0-----------------|-------------------|-0---------------|-3---------5---3---|
|------------2------|-3-------4---------|----------7------|-------------------|

|-------------0---|
|-----1---0-----0-|
|---0---0---0-----|
|-----------------|
|-----------------|
|-3---------------|

|---------------0---|----3----0---0-----|-------------0---|-----0--------0-0-|
|-1---0h1----3----3-|-3----3----0---5\3-|-1---1----8----8-|-3-----3--6--6----|
|--------0-----2----|---0---------------|-------0----7----|---0------5-5--5--|
|---2-----0---------|-------------------|---2-------------|------------------|
|-0-----------------|-------------------|-0---------------|-3--------5---3---|
|------------2------|-3-------4---------|----------7------|------------------|

|-------------0---|--------3----3----|
|-----1---0-----0-|----1--1--1---1---|
|---0---0---0-----|---0--0----0---0--|
|-----------------|-1----------1-----|
|-----------------|-----------------0|
|-3---------------|------------------|

Chorus:
|-----3-3------3-3-|-----0----------0--|-----3--3----3--3-|----1---0----1----|
|-----3--------3---|-----1--1-------1--|-----1-------1----|----3-3---3---3---|
|---0--0-----0--0--|-------0---------0-|---0---0---0---0--|---2-------2---2--|
|------------------|---2---------2-----|-3--------2-------|-0----------0-----|
|-3--------2-------|-0-----------------|------------------|-----------------0|
|------------------|-----------3-------|------------------|------------------|

|-----3-3-----3-3-|-----0---------0--0--|-----3--3-----3--3-|
|-----3-------3---|-----1---------1-----|-----1--------1----|
|---0--0----0--0--|--------0--------0---|---0---0-----0--0--|
|-----------------|---2---2-----2-------|-3---------2-------|
|-3-------2-------|-0-------------------|-------------------|
|-----------------|-----------3---------|-------------------|

|-----1--0-----0h1---------1-0-|
|-----3----3--------3------3-3-|
|---2---2---2---------2----2-2-|
|-0----------0----------0--0-0-|
|----------------------------3-|
|------------------------------|

Bridge:
|--1--3--|--3------3-|----------------0-0-------3--|
|--3--3--|--3--------|----------------3-3--3----3--|
|--2--0--|--0----0---|----2----2----2-2---------2--|
|--0--0--|--2--------|---2----2-----------------x--|
|-----2--|--3--1-----|-0------------------------3--|
|-----3--|-----------|------3-----1----------1-----|


|--1--3--|--3------3-|----------------0-0------0-----0-0-----|
|--3--3--|--3--------|----------------3-3--3---3-----3-3---3-|
|--2--0--|--0----0---|----2----2----2-2--------2----2--------|
|--0--0--|--2--------|---2----2------------------------------|
|-----2--|--3--1-----|-0-------------------------------------|
|-----3--|-----------|------3-----1----------1----2-------2--|

Guitar solo part*:
|----3-----3---|---------------------|-----0-0-----0----|-----0--0--------0-|
|------3-----3-|-----0h1--------1----|-----3----3--3----|-----3-3---3---3---|
|--0------0----|---------0--------0--|---2-----2---2--2-|---2------2----2---|
|--------------|---2----------2------|------------------|-------------------|
|-3------2-----|-0-------------------|------------------|-------------------|
|--------------|------------3-------3|-2---------2---2--|-1-----------1-----|

|----0-0-0---0---|--2--|--0--|--0------0---|-----0--------2-|-2--0-0--|
|----3-3-3---3---|--2--|--7--|--3------3---|-----2--------2-|-2--3-5--|
|---2------------|--2--|--6--|--2----2---2-|---2---2----2---|-2--2-4--|
|----------------|--4--|--7--|--0----------|----------1-----|-0----x--|
|----------------|-----|--5--|-------------|----------------|------x--|
|-0--------0---0-|-----|-----|-----1-------|-0--------------|----2-4--


Chorus:  
|-----3-3------3-3-|------0---------0--|-----3--3----3--3-|----1---0----1----|
|-----3--------3---|----0-1---------1--|-----1-------1----|----3-----3---3---|
|---0--0-----0--0--|-------0---------0-|---0---0---0---0--|---2--2----2---2--|
|------------------|---2---------2-----|-3--------2-------|-0----------0-----|
|-3--------2-------|-0-----------------|------------------|-----------------0|
|------------------|-----------3-------|------------------|------------------|

|-----3-3-----3-3-|------0------0--0-|-----3--3-----3--3-|-----1--0-1---1p0-|
|-----3-------3---|----0-1------1----|-----1--------1----|-----3------------|
|---0--0----0--0--|-------0-------0--|---0---0-----0--0--|---2---2----------|
|-----------------|---2--------2-----|-3---------2-------|-0-----------0----|
|-3-------2-------|-0----------------|-------------------|------------------|
|-----------------|----------3-------|-------------------|------------------|

Ending:
|-----3-----3---|-----0------0---|----3-------3--|-------0--1-----1-|
|-----3-----3---|-----1--------1-|------1------1-|-----3-----3----3-|
|---0-----------|-----0----0-----|--0-------0----|---2--------2---2-|
|---------0-----|---2------------|-3-------2-----|-0-----------0--0-|
|-3------2----2-|-0--------------|---------------|------------------|
|---------------|--------3-------|---------------|------------------|


*Guitar Solo:
Normal Tuning (E A D G B E)

|-(18)b19r18---------------------------------------------|
|-------------16-----20b21r20------14b16r14~--14b16r14~--|
|-----------------18----------16-------------------------|
|--------------------------------------------------------|
|--------------------------------------------------------|
|--------------------------------------------------------|

|-18b20r19-----16~------------------16--20-18--20-----------------------|
|-----------16~-----------------18-----------------21^23^21^23^21^23^21-|
|---------------------------17----17--19--------------------------------|
|-----------------------18----18----------------------------------------|
|---------------------17--17--------------------------------------------|
|-----------------------------------------------------------------------|

|-------------------------------22b23--20----------------------------|
|-----------------------20-21-23--------------------20-21-----20-21~-|
|-20^22^20^22^20^22^20--------------------21~-23-20---------20-------|
|--------------------------------------------------------------------|
|---------------------------------------------------------23---------|
|--------------------------------------------------------------------|

|----------------------------------|
|---------------------------16-12~-|
|-------------------------13-------|
|-18h20p18--15\13------------------|
|-----------------13----15---------|
|--------------------16------------|


comments
We did not receive enough feedback on this tab! Please rate:
print report bad tab
1 2 3 4 5
I want to post or [tab]
guest
You may want to rate the tab now too:
select rating
Please do not post tabs as comments. Select "correction" instead!