Oops, an error
Loading. Please wait.

All For Nothing Tab

ver1
ver1

Whole song

Interactive

More versions @911Tabs.com
5,675 views 144 this week
4 commentsread comments
1 2 3 4 5
excellent!
x 6
Autoscroll
+/-
esc
set tempo
stop
Contributor
Difficulty
Tuning
intermediate
D A D G B E
Hey! There's an official Ultimate Guitar app which is ideal
for learning songs when you're away from computer. Get the app
WARNING: You are trying to view
                                    content from Ultimate-Guitar.com
                                    in an unauthorized application,
                                    which is prohibited.

                                    Please use an official Ultimate
                                    Guitar Tabs application for iPhone,
                                    iPad or Android to access legitimate
                                    chords, guitar, bass, and drum tabs
                                    from Ultimate-Guitar.com database.

                                    Type "ultimate guitar tabs" in Apple
                                    App Store's or Android Market's
                                    search to find the application.
All For Nothing - Tab

Tuning: Dropped D

Note: There are no pauses during guitar I's main riff parts. I 
didn't write it all flowing together to try to make it easier 
to read.

[Intro (0:05-0:18)]
[0:06-0:18]
[Guitar I]
E|------------------------------------------------------------|
B|------------------------------------------------------------|
G|-12-12-12-12-12-12-12-12-11-11-11-11-11-11-11-x-------------|
D|-12-12-12-12-12-12-12-12-12-12-12-12-12-12-12-x-------------|
A|------------------------------------------------------------|
D|------------------------------------------------------------|

E|------------------------------------------------------------|
B|------------------------------------------------------------|
G|-12-x-x-12-12-12-12-12-11-11-11-11-11-11-11-11--------------|
D|-12-x-x-12-12-12-12-12-12-12-12-12-12-12-12-12--------------|
A|------------------------------------------------------------|
D|------------------------------------------------------------|

E|------------------------------------------------------------|
B|------------------------------------------------------------|
G|-12-12-12-12-12-12-12-12-11-11-11-11-11-11-11-11------------|
D|-12-12-12-12-12-12-12-12-12-12-12-12-12-12-12-12------------|
A|------------------------------------------------------------|
D|------------------------------------------------------------|

E|------------------------------------------------------------|
B|------------------------------------------------------------|
G|-11-11-11-11-11-11-11-11-11-11-11-11-11-11-11-11------------|
D|-12-12-12-12-12-12-12-12-12-12-12-12-12-12-12-12------------|
A|------------------------------------------------------------|
D|------------------------------------------------------------|

[0:05-0:18]
[Guitar II]
[x1]
E|------------------------------------------------------------|
B|------------------------------------------------------------|
G|------------------------------------------------------------|
D|-x-x-x-x----------------------------------------------------|
A|-x-x-x-x----------------------------------------------------|
D|-x-x-x-x----------------------------------------------------|

[x3]
E|------------------------------------------------------------|
B|------------------------------------------------------------|
G|--9-9-9-9-12-12-12-12---------7-7-7-7-----------------------|
D|--9-9-9-9-12-12-12-12-9-9-9-9-7-7-7-7-----------------------|
A|--7-7-7-7-10-10-10-10-9-9-9-9-5-5-5-5-----------------------|
D|----------------------9-9-9-9-------------------------------|

[x1]
E|------------------------------------------------------------|
B|------------------------------------------------------------|
G|-11-11-11-11---------7-7-7-7-12-12-12-12--------------------|
D|-11-11-11-11-9-9-9-9-7-7-7-7-12-12-12-12-2~-----------------|
A|-9--9--9--9--9-9-9-9-5-5-5-5-10-10-10-10-2~-----------------|
D|-------------9-9-9-9---------------------2~-----------------|

[Verse I (0:19-0:47)]
[0:19-0:47]
[Guitar I]
[x1]
E|------------------------------------------------------------|
B|------------------------------------------------------------|
G|-12-12-12-12-12-12-12-12-11-11-11-11-11-11-11-x-------------|
D|-12-12-12-12-12-12-12-12-12-12-12-12-12-12-12-x-------------|
A|------------------------------------------------------------|
D|------------------------------------------------------------|

E|------------------------------------------------------------|
B|------------------------------------------------------------|
G|-12-x-x-12-12-12-12-12-11-11-11-11-11-11-11-11--------------|
D|-12-x-x-12-12-12-12-12-12-12-12-12-12-12-12-12--------------|
A|------------------------------------------------------------|
D|------------------------------------------------------------|

[x2]
E|------------------------------------------------------------|
B|------------------------------------------------------------|
G|-12-12-12-12-12-12-12-12-11-11-11-11-11-11-11-11------------|
D|-12-12-12-12-12-12-12-12-12-12-12-12-12-12-12-12------------|
A|------------------------------------------------------------|
D|------------------------------------------------------------|

E|------------------------------------------------------------|
B|------------------------------------------------------------|
G|-11-11-11-11-11-11-11-11-11-11-11-11-11-11-11-11------------|
D|-12-12-12-12-12-12-12-12-12-12-12-12-12-12-12-12------------|
A|------------------------------------------------------------|
D|------------------------------------------------------------|

[x1]
E|------------------------------------------------------------|
B|------------------------------------------------------------|
G|-12-12-12-12-12-12-12-12-12-12-12-12-12-12-12-12------------|
D|-12-12-12-12-12-12-12-12-12-12-12-12-12-12-12-12------------|
A|------------------------------------------------------------|
D|------------------------------------------------------------|

E|------------------------------------------------------------|
B|------------------------------------------------------------|
G|-11-11-11-11-11-11-11-11-11-11-11-11-11-11-11-11------------|
D|-12-12-12-12-12-12-12-12-12-12-12-12-12-12-12-12------------|
A|------------------------------------------------------------|
D|------------------------------------------------------------|

E|------------------------------------------------------------|
B|------------------------------------------------------------|
G|-12-12-12-12-12-12-12-12-12-12-12-12-12-12-12-12------------|
D|-12-12-12-12-12-12-12-12-12-12-12-12-12-12-12-12------------|
A|------------------------------------------------------------|
D|------------------------------------------------------------|

E|------------------------------------------------------------|
B|------------------------------------------------------------|
G|-11-11-11-11-11-11-11-11-11-11-11---------------------------|
D|-12-12-12-12-12-12-12-12-12-12-12---------------------------|
A|------------------------------------------------------------|
D|------------------------------------------------------------|

E|------------------------------------------------------------|
B|------------------------------------------------------------|
G|------------------------------------------------------------|
D|-7-7-7-7-7--------------------------------------------------|
A|-7-7-7-7-7--------------------------------------------------|
D|------------------------------------------------------------|

[0:24-0:47]
[Guitar II]
[x2]
E|------------------------------------------------------------|
B|------------------------------------------------------------|
G|------------------------------------------------------------|
D|-2~----------5~------7~-------------------------------------|
A|-2~----------5~------7~-------------------------------------|
D|-2~----------5~------7~-------------------------------------|

[x1]
E|------------------------------------------------------------|
B|------------------------------------------------------------|
G|-5~---------------7~----------------------------------------|
D|-5~---------------7~----------------------------------------|
A|-3~---------------5~----------------------------------------|
D|------------------------------------------------------------|

E|------------------------------------------------------------|
B|------------------------------------------------------------|
G|-5~---------------7~----------------------------------------|
D|-5~---------------7~--------7~------x-x-x-x-----------------|
A|-3~---------------5~--------7~------x-x-x-x-----------------|
D|----------------------------7~------x-x-x-x-----------------|

[Chorus (0:48-1:26)]
[0:48-1:13]
[Guitar I/II]
[x2]
E|------------------------------------------------------------|
B|------------------------------------------------------------|
G|-9-9-9-9-9-9-9-9-9-9-9-9-4-4-4-4-5-5-5-5-5-5-5-5-5-5-5-5-4--|
D|-9-9-9-9-9-9-9-9-9-9-9-9-4-4-4-4-5-5-5-5-5-5-5-5-5-5-5-5-4--|
A|-7-7-7-7-7-7-7-7-7-7-7-7-2-2-2-2-3-3-3-3-3-3-3-3-3-3-3-3-2--|
D|------------------------------------------------------------|

E|------------------------------------------------------------|
B|------------------------------------------------------------|
G|-4-4-4---------------------------------7-7-7-7-7-7-7-7-7-7--|
D|-4-4-4-2-2-2-2-2-2-2-2-2-2-2-2-2-2-2-2-7-7-7-7-7-7-7-7-7-7--|
A|-2-2-2-2-2-2-2-2-2-2-2-2-2-2-2-2-2-2-2-5-5-5-5-5-5-5-5-5-5--|
D|-------2-2-2-2-2-2-2-2-2-2-2-2-2-2-2-2----------------------|

E|------------------------------------------------------------|
B|------------------------------------------------------------|
G|-7-7-7-7-7-7------------------------------------------------|
D|-7-7-7-7-7-7------------------------------------------------|
A|-5-5-5-5-5-5------------------------------------------------|
D|------------------------------------------------------------|

[x1]
E|------------------------------------------------------------|
B|------------------------------------------------------------|
G|-7-7-7-7-7-7-7-7-7-7-7-7-7-7-7-7----------------------------|
D|-7-7-7-7-7-7-7-7-7-7-7-7-7-7-7-7----------------------------|
A|-5-5-5-5-5-5-5-5-5-5-5-5-5-5-5-5----------------------------|
D|------------------------------------------------------------|

[1:14-1:26]
[Guitar I]
E|------------------------------------------------------------|
B|------------------------------------------------------------|
G|-12-12-12-12-12-12-12-12-11-11-11-11-11-11-11-x-------------|
D|-12-12-12-12-12-12-12-12-12-12-12-12-12-12-12-x-------------|
A|------------------------------------------------------------|
D|------------------------------------------------------------|

E|------------------------------------------------------------|
B|------------------------------------------------------------|
G|-12-x-x-12-12-12-12-12-11-11-11-11-11-11-11-11--------------|
D|-12-x-x-12-12-12-12-12-12-12-12-12-12-12-12-12--------------|
A|------------------------------------------------------------|
D|------------------------------------------------------------|

E|------------------------------------------------------------|
B|------------------------------------------------------------|
G|-12-12-12-12-12-12-12-12-11-11-11-11-11-11-11-11------------|
D|-12-12-12-12-12-12-12-12-12-12-12-12-12-12-12-12------------|
A|------------------------------------------------------------|
D|------------------------------------------------------------|

E|------------------------------------------------------------|
B|------------------------------------------------------------|
G|-11-11-11-11-11-11-11-11-11-11-11-11-11-11-11-11------------|
D|-12-12-12-12-12-12-12-12-12-12-12-12-12-12-12-12------------|
A|------------------------------------------------------------|
D|------------------------------------------------------------|

[1:14-1:26]
[Guitar II]
[x3]
E|------------------------------------------------------------|
B|------------------------------------------------------------|
G|--9-9-9-9-12-12-12-12---------7-7-7-7-----------------------|
D|--9-9-9-9-12-12-12-12-9-9-9-9-7-7-7-7-----------------------|
A|--7-7-7-7-10-10-10-10-9-9-9-9-5-5-5-5-----------------------|
D|----------------------9-9-9-9-------------------------------|

[x1]
E|------------------------------------------------------------|
B|------------------------------------------------------------|
G|-11-11-11-11---------7-7-7-7-12-12-12-12--------------------|
D|-11-11-11-11-9-9-9-9-7-7-7-7-12-12-12-12--------------------|
A|-9--9--9--9--9-9-9-9-5-5-5-5-10-10-10-10--------------------|
D|-------------9-9-9-9----------------------------------------|

[Verse II (1:27-1:52)]
[1:27-1:42]
[Guitar I]
E|------------------------------------------------------------|
B|------------------------------------------------------------|
G|-12-12-12-12-12-12-12-12-11-11-11-11-11-11-11-x-------------|
D|-12-12-12-12-12-12-12-12-12-12-12-12-12-12-12-x-------------|
A|------------------------------------------------------------|
D|------------------------------------------------------------|

E|------------------------------------------------------------|
B|------------------------------------------------------------|
G|-12-x-x-12-12-12-12-12-11-11-11-11-11-11-11-11--------------|
D|-12-x-x-12-12-12-12-12-12-12-12-12-12-12-12-12--------------|
A|------------------------------------------------------------|
D|------------------------------------------------------------|

E|------------------------------------------------------------|
B|------------------------------------------------------------|
G|-11-11-11-11-11-11-11-11-11-11-11-11-11-11-11-11------------|
D|-12-12-12-12-12-12-12-12-12-12-12-12-12-12-12-12------------|
A|------------------------------------------------------------|
D|------------------------------------------------------------|

E|------------------------------------------------------------|
B|------------------------------------------------------------|
G|-12-12-12-12-12-12-12-12-11-11-11-11-11-11-11-11------------|
D|-12-12-12-12-12-12-12-12-12-12-12-12-12-12-12-12------------|
A|------------------------------------------------------------|
D|------------------------------------------------------------|

E|------------------------------------------------------------|
B|------------------------------------------------------------|
G|-11-11-11-11-11-11-11-11-11-11-11-11-11-11-11-11------------|
D|-12-12-12-12-12-12-12-12-12-12-12-12-12-12-12-12------------|
A|------------------------------------------------------------|
D|------------------------------------------------------------|

[1:29-1:42]
[Guitar II]
[x2]
E|------------------------------------------------------------|
B|------------------------------------------------------------|
G|------------------------------------------------------------|
D|-2~----------5~------7~-------------------------------------|
A|-2~----------5~------7~-------------------------------------|
D|-2~----------5~------7~-------------------------------------|

[Guitar III]
[This can be heard in the background.]
[x16]
E|------------------------------------------------------------|
B|-8--7-------------------------------------------------------|
G|------------------------------------------------------------|
D|------------------------------------------------------------|
A|------------------------------------------------------------|
D|------------------------------------------------------------|

[No guitar from 1:43-1:52]

[Chorus (1:53-2:19)]
[Guitar I/II]
[x1]
E|------------------------------------------------------------|
B|------------------------------------------------------------|
G|------------------------------------------------------------|
D|-x-x-x-x----------------------------------------------------|
A|-x-x-x-x----------------------------------------------------|
D|-x-x-x-x----------------------------------------------------|

[x2]
E|------------------------------------------------------------|
B|------------------------------------------------------------|
G|-9-9-9-9-9-9-9-9-9-9-9-9-4-4-4-4-5-5-5-5-5-5-5-5-5-5-5-5-4--|
D|-9-9-9-9-9-9-9-9-9-9-9-9-4-4-4-4-5-5-5-5-5-5-5-5-5-5-5-5-4--|
A|-7-7-7-7-7-7-7-7-7-7-7-7-2-2-2-2-3-3-3-3-3-3-3-3-3-3-3-3-2--|
D|------------------------------------------------------------|

E|------------------------------------------------------------|
B|------------------------------------------------------------|
G|-4-4-4---------------------------------7-7-7-7-7-7-7-7-7-7--|
D|-4-4-4-2-2-2-2-2-2-2-2-2-2-2-2-2-2-2-2-7-7-7-7-7-7-7-7-7-7--|
A|-2-2-2-2-2-2-2-2-2-2-2-2-2-2-2-2-2-2-2-5-5-5-5-5-5-5-5-5-5--|
D|-------2-2-2-2-2-2-2-2-2-2-2-2-2-2-2-2----------------------|

E|------------------------------------------------------------|
B|------------------------------------------------------------|
G|-7-7-7-7-7-7------------------------------------------------|
D|-7-7-7-7-7-7------------------------------------------------|
A|-5-5-5-5-5-5------------------------------------------------|
D|------------------------------------------------------------|

[Guitar II]
[x1]
E|------------------------------------------------------------|
B|------------------------------------------------------------|
G|-7-7-7-7-7-7-7-7-7-7-7-7-7-7-7-7----------------------------|
D|-7-7-7-7-7-7-7-7-7-7-7-7-7-7-7-7----------------------------|
A|-5-5-5-5-5-5-5-5-5-5-5-5-5-5-5-5----------------------------|
D|------------------------------------------------------------|

[Solo/Interlude (2:20-2:48)]
[2:20-2:48]
[Guitar I]
E|------------------------------------------------------------|
B|------------------------------------------------------------|
G|-------------11-------------------------11------------------|
D|----12-14~------14-12----------12-14~------14-12------------|
A|-14-------------------14~---14-------------------14--12-10--|
D|------------------------------------------------------------|

E|------------------------------------------------------------|
B|------------------------------------------------------------|
G|------------------------------------------------------------|
D|------------------------------------------------------------|
A|-12-14~---12-10-----12-14-12~---14-12-10--------------------|
D|----------------14-----------------------14-----------------|

E|------------------------------------------------------------|
B|------------------------------------------------------------|
G|-------------11-------------------------11------------------|
D|----12-14~------14-12----------12-14~------14-12------------|
A|-14-------------------14~---14-------------------14--12-10--|
D|------------------------------------------------------------|

E|------------------------------------------------------------|
B|------------------------------------------------------------|
G|------------------------------------------------------------|
D|------------------------------------------------12~---------|
A|-12-14~---12-10-----12-14--12~----14~----15~----------------|
D|----------------14------------------------------------------|

E|-------------------------------------12-14-15----12v~-------|
B|-------------------12-13----12-13-15----------15------------|
G|----11-12-11-12-14-------14---------------------------------|
D|-12---------------------------------------------------------|
A|------------------------------------------------------------|
D|------------------------------------------------------------|

[2:20-2:48]
[Guitar II]
[x2]
E|------------------------------------------------------------|
B|------------------------------------------------------------|
G|-9-9-9-9-9-9-9-9-9-9-9-9-4-4-4-4-5-5-5-5-5-5-5-5-5-5-5-5-4--|
D|-9-9-9-9-9-9-9-9-9-9-9-9-4-4-4-4-5-5-5-5-5-5-5-5-5-5-5-5-4--|
A|-7-7-7-7-7-7-7-7-7-7-7-7-2-2-2-2-3-3-3-3-3-3-3-3-3-3-3-3-2--|
D|------------------------------------------------------------|

E|------------------------------------------------------------|
B|------------------------------------------------------------|
G|-4-4-4---------------------------------7-7-7-7-7-7-7-7-7-7--|
D|-4-4-4-2-2-2-2-2-2-2-2-2-2-2-2-2-2-2-2-7-7-7-7-7-7-7-7-7-7--|
A|-2-2-2-2-2-2-2-2-2-2-2-2-2-2-2-2-2-2-2-5-5-5-5-5-5-5-5-5-5--|
D|-------2-2-2-2-2-2-2-2-2-2-2-2-2-2-2-2----------------------|

E|------------------------------------------------------------|
B|------------------------------------------------------------|
G|-7-7-7-7-7-7------------------------------------------------|
D|-7-7-7-7-7-7------------------------------------------------|
A|-5-5-5-5-5-5------------------------------------------------|
D|------------------------------------------------------------|

[x1]
E|------------------------------------------------------------|
B|------------------------------------------------------------|
G|-7-7-7-7-7-7-7-7-7-7-7-7-7-7-7-7----------------------------|
D|-7-7-7-7-7-7-7-7-7-7-7-7-7-7-7-7----------------------------|
A|-5-5-5-5-5-5-5-5-5-5-5-5-5-5-5-5----------------------------|
D|------------------------------------------------------------|

[Chorus (2:49-3:08)]
[2:50-2:53]
[The A string, 7th fret note is picked at the same time the
higher E, 12th fret note is picked by Guitar I.]
[This part starts quietly, then gets louder.]
[Guitar II]
E|------------------------------------------------------------|
B|------------------------------------------------------------|
G|--------12-12-12-12-4-4-4-4-7-7-7-7-------------------------|
D|--------x--x--x--x--x-x-x-x-x-x-x-x-------------------------|
A|-7v~----10-10-10-10-2-2-2-2-5-5-5-5-------------------------|
D|------------------------------------------------------------|

E|------------------------------------------------------------|
B|------------------------------------------------------------|
G|-11-11-11-11-4-4-4-4-7-7-7-7-12-12-12-12--------------------|
D|-x--x--x--x--x-x-x-x-x-x-x-x-x--x--x--x---------------------|
A|-9--9--9--9--2-2-2-2-5-5-5-5-10-10-10-10--------------------|
D|------------------------------------------------------------|

[2:54-3:08]
[Guitar I/II]
[x3]
E|------------------------------------------------------------|
B|------------------------------------------------------------|
G|--9-9-9-9-12-12-12-12---------7-7-7-7-----------------------|
D|--9-9-9-9-12-12-12-12-9-9-9-9-7-7-7-7-----------------------|
A|--7-7-7-7-10-10-10-10-9-9-9-9-5-5-5-5-----------------------|
D|----------------------9-9-9-9-------------------------------|

[x2]
E|------------------------------------------------------------|
B|-----------------------------------------10-----------------|
G|-11-11-11-11---------7-7-7-7-12-12-12-12--------------------|
D|-11-11-11-11-9-9-9-9-7-7-7-7-12-12-12-12--------------------|
A|-9--9--9--9--9-9-9-9-5-5-5-5-10-10-10-10--------------------|
D|-------------9-9-9-9----------------------------------------|

[Outro (3:08-3:30)]
[Guitar part begins at 3:15, last note is picked at 3:30]

[Guitar I]
E|------------------------------------------------------------|
B|------------------------------------------------------------|
G|-----------13--14--------------12---------------------------|
D|-15--14--------------12--11--------14--15----14----12-------|
A|------------------------------------------------------------|
D|------------------------------------------------------------|

If there's any confusion, questions, or advice on how to 
improve it, please post a comment. Have fun playing, and 
please rate! -Rarrlow
comments
print report bad tab
4 comments total. Showing first comments.
0 reply
TheSiggi wrote on July 7 2014, 01:05 pm

This part:

[x1]
E|------------------------------------------------------------|
B|------------------------------------------------------------|
G|-12-12-12-12-12-12-12-12-12-12-12-12-12-12-12-12------------|
D|-12-12-12-12-12-12-12-12-12-12-12-12-12-12-12-12------------|
A|------------------------------------------------------------|
D|------------------------------------------------------------|

E|------------------------------------------------------------|
B|------------------------------------------------------------|
G|-11-11-11-11-11-11-11-11-11-11-11-11-11-11-11-11------------|
D|-12-12-12-12-12-12-12-12-12-12-12-12-12-12-12-12------------|
A|------------------------------------------------------------|
D|------------------------------------------------------------|

E|------------------------------------------------------------|
B|------------------------------------------------------------|
G|-12-12-12-12-12-12-12-12-12-12-12-12-12-12-12-12------------|
D|-12-12-12-12-12-12-12-12-12-12-12-12-12-12-12-12------------|
A|------------------------------------------------------------|
D|------------------------------------------------------------|

E|------------------------------------------------------------|
B|------------------------------------------------------------|
G|-11-11-11-11-11-11-11-11-11-11-11---------------------------|
D|-12-12-12-12-12-12-12-12-12-12-12---------------------------|
A|------------------------------------------------------------|
D|------------------------------------------------------------|

Sounds a lot better like this:

[x1]
E|------------------------------------------------------------|
B|------------------------------------------------------------|
G|-9--9--9--9--9--9--9--9--9--9--9--9--9--9--9--9-------------|
D|-10-10-10-10-10-10-10-10-10-10-10-10-10-10-10-10------------|
A|------------------------------------------------------------|
D|------------------------------------------------------------|

E|------------------------------------------------------------|
B|------------------------------------------------------------|
G|-11-11-11-11-11-11-11-11-11-11-11-11-11-11-11-11------------|
D|-12-12-12-12-12-12-12-12-12-12-12-12-12-12-12-12------------|
A|------------------------------------------------------------|
D|------------------------------------------------------------|

[x1]
E|------------------------------------------------------------|
B|------------------------------------------------------------|
G|-9--9--9--9--9--9--9--9--9--9--9--9--9--9--9--9-------------|
D|-10-10-10-10-10-10-10-10-10-10-10-10-10-10-10-10------------|
A|------------------------------------------------------------|
D|------------------------------------------------------------|

E|------------------------------------------------------------|
B|------------------------------------------------------------|
G|-11-11-11-11-11-11-11-11-11-11-11-11-11-11-11-11------------|
D|-12-12-12-12-12-12-12-12-12-12-12-12-12-12-12-12------------|
A|------------------------------------------------------------|
D|------------------------------------------------------------|

Hope i helped (:

0 reply
Rarrlow wrote on July 9 2014, 11:32 am

Hm.. Having it at 9 and 10 sounds too low to me. If you listen carefully, you can tell it goes from high to low. These things can be confusing.

0 reply
Przemox96 wrote on July 12 2014, 09:19 am

I watched some cover on youtube and there guy use this tab


E|------------------------------------------------------------|
B|------------------------------------------------------------|
G|-8--8--8--8--8--8--8--8--8--8--8--8--8--8--8--8-------------|
D|-9--9--9--9--9--9--9--9--9--9--9--9--9--9--9--9-------------|
A|------------------------------------------------------------|
D|------------------------------------------------------------|

E|------------------------------------------------------------|
B|------------------------------------------------------------|
G|-7--7--7--7--7--7--7--7--7--7--7--7--7--7--7--7-------------|
D|-9--9--9--9--9--9--9--9--9--9--9--9--9--9--9--9-------------|
A|------------------------------------------------------------|
D|------------------------------------------------------------|


In my opinion is the best way.
Sorry for my English ;)

I want to post or [tab]
guest
You may want to rate the tab now too:
select rating
Please do not post tabs as comments. Select "correction" instead!