Oops, an error
Loading. Please wait.

All Tabs Of Linkin Park Tab

169,897 views 103 this week
75 commentsread comments
1 2 3 4 5
excellent!
x 142
Autoscroll
+/-
esc
set tempo
stop
Hey! There's an official Ultimate Guitar app which is ideal
for learning songs when you're away from computer. Get the app
WARNING: You are trying to view
                                    content from Ultimate-Guitar.com
                                    in an unauthorized application,
                                    which is prohibited.

                                    Please use an official Ultimate
                                    Guitar Tabs application for iPhone,
                                    iPad or Android to access legitimate
                                    chords, guitar, bass, and drum tabs
                                    from Ultimate-Guitar.com database.

                                    Type "ultimate guitar tabs" in Apple
                                    App Store's or Android Market's
                                    search to find the application.
LP songs are relatively easy to play but pretty hard to tab; this isnt the first
time i've posted these, but they weren't perfect, so email me if you have corrections.

Tabber: shutup_when_im_talkin_to_you@hotmail.com

LINKIN PARK

HYBRID THEORY EP
[HYBRID THEORY]
METEORA
and more..


/= slide up
\= slide down
x= mute note
*= harmonic
h= hammer on

Note: since Linkin Park play a lot of harmonics in their songs, I suggest that every
time a harmonic is played, you strum/pick that string close to the bridge/tailpiece
to produce a cleaner harmonic sound. Also when playing harmonics, plug the guitar into
an effects pedal so you can actually hear the harmonics well - especially on harmonics
9* and 3* - like a sustain pedal and a pretty heavy distortion pedal (depending on which
part of the song and what it sounds like). Effects usually heighten the sound of harmonics.
Have fun

By the way, for those who don't know and are using chromatic tuners to play these
songs, Db, Ab, Db, Gb, Bb, Eb tuning is exactly the same as C#, G#, C#, F#, A#, D#.


HYBRID THEORY EP


1. Carousel

Tuning: low to high: C#, G#, C#, F#, A#, D#

Intro (keyboards converted to guitar)
D#|----------------------|
A#|-1---4---1---2--------|
F#|----------------3-----|
C#|----------------------|
G#|----------------------|
C#|----------------------|

Chorus [distortion]
D#|-----------------------------------------------------------|
A#|-----------------------------------------------------------|
F#|-----------------------------------------------------------|
C#|-22-22--33-33---22-22--33-33---22-22--33-33---22-22--33-33-|
G#|-22-22--33-33---22-22--33-33---22-22--33-33---22-22--33-33-|
C#|-22-22--33-33---22-22--33-33---22-22--33-33---22-22--33-33-|

Bridge (for every time a note is strummed, a note on the intro keyboard riff can
be played by as second guitar as shown in brackets)
D#|-----------------------------------|
A#|-----------------------------------|
F#|---(1)----(4)----(1)----(2)--------|
C#|--22-22--22-22--22-22--22-22-(3)---|
G#|--22-22--22-22--22-22--22-22-------|
C#|--22-22--22-22--22-22--22-22-------|



2. Technique

No guitar in this song



3. Step Up

Tuning: low to high: C#, G#, C#, F#, A#, D#

Intro
D#|-5-555-3-3-5-3-5-1------1---1-0------------|
A#|--------------------3-3---3--------0-1-----|
F#|---------------------------------------2---|
C#|-------------------------------------------|
G#|-------------------------------------------|
C#|-------------------------------------------|

Chorus
D#|----------------------------------------------|
A#|----------------------------------------------|
F#|------10/9--7777-----------10/9---------------|
C#|-7777-10/9--7777-555--7777-10/9-8888-10101010-|
G#|-7777--8/7--5555-555--7777--8/7-8888-10101010-|
C#|-7777------------555--7777------8888-10101010-|

Pre-Chorus of 2nd Verse
D#|--------------------------------------------------|
A#|--------------------------------------------------|
F#|-2222-2-222--3333-3333-3--2222-2-222--3333-5555-5-|
C#|-2222-2-222--3333-3333-3--2222-2-222--3333-5555-5-|
G#|-0000-0-000--1111-1111-1--0000-0-000--1111-3333-3-|
C#|--------------------------------------------------|

Bridge x2
D#|-----------------------------------------------|
A#|-----------------------------------------------|
F#|----------*12------------*12--------------*12--|
C#|-------*7-------------*7---------------*7------| x2
G#|----*7-------*7----*7---------*7----*7---------|
C#|-*7-------------*7---------------*7------------|

D#|------------------------|
A#|------------------------|
F#|----------*12-----------|
C#|-------*7---------------|
G#|----*7-------------*7---|
C#|-*7-------------*7------|

Heavy Bridge
D#|-------------------------|
A#|-------------------------|
F#|-2222-2-222--3333-3333-3-|
C#|-2222-2-222--3333-3333-3-|x3
G#|-0000-0-000--1111-1111-1-|
C#|-------------------------|

D#|-------------------------|
A#|-------------------------|
F#|-2222-2-222--3333-5555-5-|
C#|-2222-2-222--3333-5555-5-|
G#|-0000-0-000--1111-3333-3-|
C#|-------------------------|



4. And One

Tuning: low to high: C#, G#, C#, F#, A#, D#

Intro [softly]
D#|--------------------------------------------------------------|
A#|--------------------------------------------------------------|
F#|--------------------------------------------------------------|
C#|--------------------------------------------------------------|
G#|------------*5-------------------------------*5---------------|
C#|00-0-08-8-88---00-0-08-8-88-*5--00-0-08-8-88-----00-0-08-8-88-|

Verse [heavier distortion] (I forget the order of the harmonic parts, u can easily
figure it out; also, brad plays a harmonic 12 on the 3rd string once in the second verse)
D#|-------------------------------------------------------------------|
A#|-------------------------------------------------------------------|
F#|-------------------------------------------------------------------|
C#|-------------------------------------------------------------------|
G#|00-0-08-8-88-*5--00-0-08-8-88----*5--00-0-08-8-88-*5--00-0-08-8-88-|
C#|00-0-08-8-88-----00-0-08-8-88-*5-----00-0-08-8-88-----00-0-08-8-88-|

Chorus
D#|-----------------------------------------------|
A#|-----------------------------------------------|
F#|-----------------10-10-10-1010-----------------|
C#|0-0-00-08-8-88-8-10-10-10-1010-\3-33-3-\1-11-1-|
G#|0-0-00-08-8-88-8--8--8--8--8-8-\3-33-3-\1-11-1-|
C#|0-0-00-08-8-88-8--8--8--8--8-8-\3-33-3-\1-11-1-|


Bridge
D#|------------------------------------------------------|
A#|-----6--5----------3--1-------------------------------|
F#|---------------------------------0-----------0--------|
C#|--0---0--0-----3-----3--3------3------2---2------2--2-|
G#|-------------0---1-----------3----------3----------3--|
C#|0--------------------------3--------------------------|

Heavy Bridge part (2:30)
D#|-----------------------------------------------|
A#|-----------------------------------------------|
F#|----------7------------7------------7----------|
C#|-000------x---000------x---000------x---000~~--|
G#|-000------5---000------5---000------5---000~~--|
C#|-000--3/7-----000--3/7-----000--3/7-----000~~--|

D#|-------------------------------------------------------------------|
A#|-------------------------------------------------------------------|
F#|-------------------------------------------------------------------|
C#|00-0-08-8-88------00-0-08-8-88-----00-0-08-8-88------00-0-08-8-00--|
G#|00-0-08-8-88------00-0-08-8-88-----00-0-08-8-88------00-0-08-8-88--|
C#|00-0-08-8-88-*10--00-0-08-8-88-*4--00-0-08-8-88-*10--00-0-08-8-88--|

5. High Voltage

Tuning: low to high: C#, G#, C#, F#, A#, D#

Intro/Chorus
D#|----------------|
A#|----------------|
F#|----------------|
C#|-3-3---6-5-4-3--|
G#|----------------|
C#|----------------|
Verse
D#|----------------|
A#|----------------|
F#|----------------|
C#|-3-3-----1-4-1--|
G#|------4---------|
C#|----------------|



6. Part of Me

Tuning: low to high: C#, G#, C#, F#, A#, D#

Intro
D#|--------------------------|
A#|--------------------------|
F#|--------------------------|
C#|--------------------------|
G#|----------77------7777-7--|
C#|--66--66-------66---------|

Verse/Soft Bridge [verse with distortion, bridge played clean]
D#|------------------8---8---------------------------------------|
A#|-10--10--10--10-----------8---8--10--10--10--10--12--12--8--8-|
F#|9---9---9---9---10--10--10--10--9---9---9---9---9---9---9--9--|
C#|--------------------------------------------------------------|
G#|--------------------------------------------------------------|
C#|--------------------------------------------------------------|

Pre-Chorus "Cut myself free...."
D#|-------------------------|
A#|-------------------------|
F#|-------------------------|
C#|--32--32--32--32-223-5---|
G#|--32--32--32--32-223-5---|
C#|--32--32--32--32-223-5---|

Chorus
D#|-------------------------------------------|
A#|-------------------------------------------|
F#|-------99-99-999-----99---------------44-4-|
C#|-66-66-99-99-999--66-99-66-66-44-44-4/4444-|
G#|-66-66-77-77-777--66-77-66-66-44-44-4/2242-|
C#|-66-66------------66----66-66-44-44-4/--4--|

D#|------------------------------------------|
A#|------------------------------------------|
F#|-------99-99-999----99---------------44-4-|
C#|-66-66-99-99-999-66-99-66-66-11-11-1/4414-|
G#|-66-66-77-77-777-66-77-66-66-11-11-1/2212-|
C#|-66-66-----------66----66-66-11-11-1/--1--|






[HYBRID THEORY]


1. Papercut

Tuning: low to high: C#, G#, C#, F#, A#, D#

Intro (distorted keyboard effect done by Mr. Hahn)
D#|-10---12---13---12---10---12---13---12-----|
A#|---10---10---10----10---10---10---10---10--|
F#|-------------------------------------------|
C#|-------------------------------------------|
G#|-------------------------------------------|
C#|-------------------------------------------|

Chorus (Intro is played in background and can be done by 2nd guitar)
D#|-------------------------------|
A#|-------------------------------|
F#|----------10-9---5-55-5555-----|
C#|--0--0----8--7---5-55-5555-----|
G#|--0--0----8--7---3-33-3333-----|
C#|--0--0----8--7---3-33-3333-----|

1st Verse 
D#|-------------------------------|
A#|-------------------------------|
F#|-------------------------------|
C#|--1-1-3---0-0-0----8-88-8-77---|<= 1st, 5th and 7th time
G#|--1-1-3---0-0-0----8-88-8-77---|
C#|--1-1-3---0-0-0----8-88-8-77---|
   [PALM MUTE ALL]

D#|------------------------|
A#|------------------------|
F#|------------------------|
C#|--0-0-0----8-88-8-77----|<= 2nd, 3rd and 4th time
G#|--0-0-0----8-88-8-77----|
C#|--0-0-0----8-88-8-77----| 
  [PALM MUTE ALL]


2nd Verse 
D#|-------------------------------|
A#|-------------------------------|
F#|-------------------------------|
C#|--1-1-3---0-0-0----8-88-8-77---|<=1st,2nd,3rd,4th, 5th, 
G#|--1-1-3---0-0-0----8-88-8-77---|         7th and 8th time
C#|--1-1-3---0-0-0----8-88-8-77---|
   [PALM MUTE ALL]

D#|------------------------|
A#|------------------------|
F#|------------------------|
C#|--0-0-0----8-88-8-77----|<= 6th time only
G#|--0-0-0----8-88-8-77----|
C#|--0-0-0----8-88-8-77----| 
   [PALM MUTE ALL]

Bridge 
D#|-----------------|         
A#|-----------------|  
F#|-----------------| 
C#|--1-1-3---0-0-0--|x3
G#|--1-1-3---0-0-0--|
C#|--1-1-3---0-0-0--|

D#|---------------------------|         
A#|---------------------------|  
F#|---------------------------| 
C#|--1-1-3---0-0-0-0-0-0-0-0--|
G#|--1-1-3---0-0-0-0-0-0-0-0--|
C#|--1-1-3---0-0-0-0-0-0-0-0--|

Last Chorus/outro "the sun goes down....."
D#|-----------------------------------------------------|
A#|-----------------------------------------------------|
F#|-----------------------------------------------------|
C#|8-8-8-8--8-8/1010-10-10--5-5-5---5--5-5-5-5---5-5-5--|
G#|8-8-8-8--8-8/1010-10-10--5-5-5---5--5-5-5-5---5-5-5--|
C#|8-8-8-8--8-8/1010-10-10--5-5-5---5--5-5-5-5---5-5-5--|

END 
D#|-----------------|
A#|-----------------|
F#|-----------------|
C#|--1-1-3---0-0-0--|
G#|--1-1-3---0-0-0--|
C#|--1-1-3---0-0-0--|


2. One Step Closer

Tuning: low to high: C#, G#, C#, F#, A#, D#

Intro (optional: play the open notes slightly muted, with your wrist barely pressing
the string near the bridge/tailpiece of the guitar to create a distorted crunch like
in the song)
D#|-------------------------------|
A#|-------------------------------|
F#|-------------------------------|
C#|-------------------------------|
G#|-------------7-----------------|
C#|--0--*5--*7------8--*7--0--3---|

Verse 
D#|---------------------------|
A#|---------------------------|
F#|----------9-----------5----|
C#|---0-0--x-x----8-7----x----|
G#|---0-0--x-7----8-7----7----|
C#|---0-0--x------8-7--0------|

Little Pre-Chorus part 1
D#|------------------------------|
A#|------------------------------|
F#|------------------------------|
C#|--55--xx-x-55--xx-x-55--xx-x--|
G#|--55--xx-x-55--xx-x-55--xx-x--|
C#|--55--xx-x-55--xx-x-55--xx-x--|
                         
Chorus 
D#|---------------------------------------|
A#|---------------------------------------|
F#|---------------------------------------|
C#|--00-0/12--1010\-7--1010--55--77--33---|
G#|--00-0/12--1010\-7---8-8--55--77--11---|
C#|--00-0/12--1010\-7---8-8--55--77--11---|

  (after 4th time chorus riff is played: after 2nd chorus and at end)
D#|-------------------|
A#|-------------------|
F#|-------------------|
C#|--1-1-1-1-1-1-1-1--|
G#|--1-1-1-1-1-1-1-1--|
C#|--1-1-1-1-1-1-1-1--|
  [PALM MUTE ALL]

Little Pre-Chorus part 2
D#|---------------------------------*5-*5-*5--|
A#|------------------------------*5-----------|
F#|-------------------------------------------|
C#|--55--xx-x-55--xx-x-55--xx-x---------------|
G#|--55--xx-x-55--xx-x-55--xx-x---------------|
C#|--55--xx-x-55--xx-x-55--xx-x---------------|
                         
Bridge  "Shutup when I'm talking to you..."
D#|------------------------------------------|
A#|------------------------------------------|
F#|------------------------------------------|
C#|-1-0---x-x---0--1-3-0-0--6\-0--[0--0--0]--|
G#|-1-0---x-x---0--1-3-0-0--6\-0--[0--0--0]--|
C#|-1-0---x-x---0--1-3-0-0--6\-0--[0--0--0]--|
  [PALM MUTE ALL]                 [fourth time only]  



3. With You

Note: Brad uses a 7-string Ibanez to play this song

Standard Tuning: low to high: B, E, A, D, G, b, e,

To play on 6-string guitar, tune to standard 7 string and play the same as 7-string
except ignore the highest e string, which isn't even used in this song. I suggest
if u do so, buy thick, heavy gauge strings or bass strings for the heavy string,
and switch the other strings one space over (subtract the highest string (e) off)
so that the lowest string (B) is that thick string, that will make it sound better).

Intro (bass part converted to guitar)
e|-----------------------------| 
b|-----------------------------| 
G|-----------------------------|
D|-----------------------------| 
A|-----------------------------|
E|-----------------------------|
B|---55-----55-----55-----55---|

Main Riff [use distortion, make sure your guitar is tuned right and you strum near the
bridge/tailpiece of the guitar to get that harmonic to sound good]
e|-------------------------|
b|-------------------------|
G|-------------------------|
D|-------------------------|
A|-2222-3-3--2-2-222-------|
E|-2222-3-3--2-2-222-------|
B|-0000-1-1--0-0-000--*3---|
            [PALM MUTE]

Chorus and Bridge
e|------------------------|
b|------------------------|
G|------------------------|
D|--------9---------4-----|
A|---7----9---12----5-----|
E|---7----7---10----5-----|
B|---5----0----8----3-----|

Verse (sustain)
e|-----------------------------------------------| 
b|-----*7----*12-*12-----*12--------------*7-----| 
G|-*5------------------------*12-----------------|
D|-------*5-----------*5---------*12-*7------*5--|all in harmonics
A|-----------------------------------------------|
E|-----------------------------------------------|
B|-----------------------------------------------|



4. Points of Authority

Tuning: low to high: C#, G#, C#, F#, A#, D#

Intro [optional] 
(DJ sample in many parts of the song converted to guitar)
D#|------7-------7--------7-------7----|
A#|----8---8---8---8---8---8---8---8---|
F#|--9--------9-------9-------9--------|
C#|------------------------------------|
G#|------------------------------------|
C#|------------------------------------|

Guitar Intro  "forfeit the game..." 
(optional: play all the open notes in this song (excluding the end part of
"Last Part of Verse Before Chorus") kinda muted, with your wrist barely pressing
the string near the bridge/tailpiece of the guitar to create a distorted crunch
like in the song)
D#|--------------------------------------------------------------------|
A#|--------------------------------------------------------------------|
F#|--------------------------------------------------------------------|
C#|22-0h3-3-0h2-2h3-0h2-2-0h3-0h2-2-0-0h3--2-2-0h3-3-0h2-2h3-0h2-2-0h3-|
G#|22-0h3-3-0h2-2h3-0h2-2-0h3-0h2-2-0-0h3--2-2-0h3-3-0h2-2h3-0h2-2-0h3-|
C#|22-0h3-3-0h2-2h3-0h2-2-0h3-0h2-2-0-0h3--2-2-0h3-3-0h2-2h3-0h2-2-0h3-|
  Play this quietly with soft distortion once   

Verse/Bridge
D#|-------------------------------------------|
A#|-------------------------------------------|
F#|-------------------------------------------|
C#|-2-2-0h3-3-0h2-2h3-0h2-2-0h3-0h2-2-0-0h3---|
G#|-2-2-0h3-3-0h2-2h3-0h2-2-0h3-0h2-2-0-0h3---|
C#|-2-2-0h3-3-0h2-2h3-0h2-2-0h3-0h2-2-0-0h3---|

Last part of verse before chorus (every muted note (x) is played with your
fingers still at the fret of the note before)
D#|-------------------------------------------|
A#|-------------------------------------------|
F#|-------------------------------------------|
C#|-2-2-0h3-3-0h2-2h3-0h2-2-0h3--x-2-x-0-x-3--|
G#|-2-2-0h3-3-0h2-2h3-0h2-2-0h3--x-2-x-0-x-3--|
C#|-2-2-0h3-3-0h2-2h3-0h2-2-0h3--x-2-x-0-x-3--|

Chorus
D#|--------------------------------------|
A#|--------------------------------------|
F#|--4--5--4--5--4--5--3--5--------------|
C#|--2--3--2--3--2--3--2--3---2-2-0-0h3--|
G#|--2--3--2--3--2--3--2--3---2-2-0-0h3--|
C#|--2--3--2--3--2--3--2--3---2-2-0-0h3--|

Outro
D#|--------------------------------------|
A#|--------------------------------------|
F#|--------------------------------------|
C#|-2-2-0h3-3-0h2-2h3-0h2-2-0h3-0h2-0-3--|
G#|-2-2-0h3-3-0h2-2h3-0h2-2-0h3-0h2-0-3--|
C#|-2-2-0h3-3-0h2-2h3-0h2-2-0h3-0h2-0-3--|
						    [pause...]
D#|-------------------------------------|
A#|-------------------------------------|
F#|-------------------------------------|
C#|--2-0h2-2h3-0h2-2-0h3-0h2-2-0-0h3-2--|
G#|--2-0h2-2h3-0h2-2-0h3-0h2-2-0-0h3-2--|
C#|--2-0h2-2h3-0h2-2-0h3-0h2-2-0-0h3-2--|

5. Crawling

Tuning: low to high: C#, G#, C#, F#, A#, D#

Intro (DJ sample converted to guitar)
D#|----20--17-----------------|
A#|------------20-18-17-18----|
F#|--19-----------------------|
C#|---------------------------|
G#|---------------------------|
C#|---------------------------|

Quick little Pre-chorus part 

Guitar 1: Brad
D#|----------------|
A#|----------------|
F#|----------------|
C#|----------------|
G#|----------------|
C#|-*10-*10*10-*10-|

Guitar 2: Mike
D#|-------------|      D#|-------------|
A#|-------------|      A#|-------------|
F#|-11-1111-11--|      F#|-------------|
C#|--x--x-x--x--| or   C#|-------------|
G#|--9--9-9--9--|      G#|-------------|
C#|-------------|      C#|-*9-*9*9-*9--|

Chorus

Guitar 1: Brad
D#|--------------------------|
A#|--------------------------|
F#|--------------------------|
C#|--0----8----3----10---7---|
G#|--0----8----3----10---7---|
C#|--0----8----3----10---7---|

Guitar 2: Mike
D#|---------------------------|
A#|---------------------------|
F#|-11----5---10-----9---12---|
C#|--x----x----x-----x----x---|
G#|--9----3----8-----7---10---|
C#|---------------------------|
      x8   x8   x8    x6   x2
Fast constant strumming pattern for every note

Outro/End     "This lack of self control... confusing what is real...."

Guitar 1: Brad
D#|---------------------------------------|
A#|---------------------------------------|
F#|---------------------------------------|
C#|--0----8----3----10-10-10-10-10-10--7--|
G#|--0----8----3----10-10-10-10-10-10--7--|
C#|--0----8----3----10-10-10-10-10-10--7--|

Guitar 2: Mike
D#|---------------------------------------|
A#|---------------------------------------|
F#|-11----5---10---9--9--9--9--9--9---12--|
C#|--x----x----x---x--x--x--x--x--x----x--|
G#|--9----3----8---7--7--7--7--7--7---10--|
C#|---------------------------------------|



6. Runaway      

Note: Brad uses a 7-string Ibanez to play this song
Tuning: low to high: B, E, A, D, G, b, e
To play on 6-string guitar, tune to standard 7-string with a low B (B, E, A, D, G, B)
and play the same as 7-string except subtract the high e string which is hardly used
in this song. But use very heavy gauge strings.

Intro
e|----------------------------------------|
b|----------------------------------------|
G|----------------------------------------|
D|--9-99-12-1212-12-1212-5-55-7-77-7-77---|
A|--9-99-12-1212-12-1212-5-55-7-77-7-77---|
E|--7-77-10-1010-10-1010-3-33-5-55-5-55---|
B|----------------------------------------|

Quick little Pre-chorus part
e|---*7----*7------|
b|------------*7---|
G|-----------------|
D|-----------------|
A|-----------------|
E|-----------------|
B|-----------------|

Chorus
E|-----------------------------------------------|
B|-----------------------------------------------|
G|-----------------------------------------------|
D|------12-1212-12-1212--------------------------|
A|2-22--12-1212-12-1212-10-1010-12-1212-12-1212--|
E|2-22--10-1010-10-1010-10-1010-12-1212-12-1212--|
B|0-00-------------------8--8-8-10-1010-10-1010--|

Bridge  "Gonna run away, gonna run away"
E|-------------------------------------------|
B|-------------------------------------------|
G|-------------------------------------------|
D|-------------------------------------------|
A|--2--2-2-2-3-3---2-2-2-3-------------------|
E|--2--2-2-2-3-3---2-2-2-3-------------------|
B|--0--0-0-0-1-1---0-0-0-1-------------------|



7. By Myself

Tuning: low to high: C#, G#, C#, F#, A#, D#

Intro (it is vital that you have pretty heavy distortion and strum near
the bridge/tailpiece of the guitar to get the right harmonic sound) 
D#|------------------------------------------|
A#|------------------------------------------|
F#|------------------------------------------|
C#|-----------7-7-*3-----1-1-1111---7-7-*3---|
G#|-----------7-7-*3-----1-1-1111---7-7-*3---|
C#|--11-1-1---7-7-*3-----1-1-1111---7-7-*3---|
    [^softly]          [^ play this section 3x until verse starts]

Halfway thru 1st verse 
"...or do I trust nobody and live in loneliness?"
D#|------------|
A#|------------|
F#|------------|
C#|--11-1-1----|
G#|--11-1-1----|
C#|--11-1-1----|
 [PALM MUTE]

Pre-Chorus
D#|----------------------------------------|
A#|----------------------------------------|
F#|----------------------------------------|
C#|--1-1-111--7-7-*3-----1-1-111--7-7-*3---| x2
G#|--1-1-111--7-7-*3-----1-1-111--7-7-*3---|
C#|--1-1-111--7-7-*3-----1-1-111--7-7-*3---|

D#|------------|
A#|------------|
F#|------------|
C#|--11-1-1----|
G#|--11-1-1----|
C#|--11-1-1----|

Chorus
D#|---------------------------|
A#|---------------------------|
F#|---------------------------|
C#|--7-----3-x-x-x-0-x-x-x----| x4
G#|--7-----3-x-x-x-0-x-x-x----|
C#|--7-----3-x-x-x-0-x-x-x----|
[Play every muted note (x) with your fingers still at the same fret as the
preceding note until the next regular note is to be played]

Soft Bridge part
D#|----------------|
A#|----------------|
F#|----------------|
C#|--11-1-1--7-7---|
G#|--11-1-1--7-7---|
C#|--11-1-1--7-7---|
   [very softly, low distortion]

The Heavy Bridge is pretty much the same as the Pre-Chorus, but a few little
alterations, but the same notes. You'll figure it out after listening to it
once or twice, it's really easy. After that, the chorus is played to the end.



8. In The End

Tuning: low to high: C#, G#, C#, F#, A#, D#

Verse
D#|---------------7*-----------------12*---|
A#|-------7*-------------------7*----------|
F#|--5*-------------------5*---------------|
C#|----------------------------------------|
G#|----------------------------------------|
C#|----------------------------------------|

Chorus/ Bridge
D#|------------------------------------------------------|
A#|------------------------------------------------------|
F#|-------------7--------------------------7-------------|
C#|-2-----5-----7----10-----0--2-----5-----7-----10------|
G#|-2-----5-----5----10-----0--2-----5-----5-----10------|
C#|-2-----5-----0----10-----0--2-----5-----0-----10------|

Chorus Guitar 2: originally distorted keyboard done by the DJ, but converted
to guitar 2. It's pretty much the same as the verse except with distortion
and I lined it up with the chorus tabs above so you can tell the timing between
the two parts, but it's pretty easy to figure out by ear. Also, this isn't
played in the Bridge, only Guitar 1 is.
D#|-------7*--------12*----12*-------7*---------12*---|
A#|-7*----------7*-------------7*----------7*---------|
F#|-----------5*-------------------------5*-----------|
C#|---------------------------------------------------|
G#|---------------------------------------------------|
C#|---------------------------------------------------|

End
D#|--------|
A#|--*7----|
F#|--------|
C#|--------|
G#|--------|
C#|--------|


Piano Parts Converted To Guitar

Main Riff
D#|----------------|
A#|----------------|
F#|---44-----------|
C#|-2-----5-44445--|
G#|----------------|
C#|----------------|

Outro
D#|------------------|
A#|---------5--7-8-7-|
F#|------------------|
C#|-2-4-5------------|
G#|------------------|
C#|------------------|


9. A Place For My Head

Tuning: low to high: C#, G#, C#, F#, A#, D#

Intro
D#|-----------------------------------------|
A#|-----------------------------------------|
F#|-----------------------------------------|
C#|------9-9-9-10-9-7-----------------------|
G#|-7-7---------------10-10--8-8-8-8-8-10---|
C#|-----------------------------------------|


Verse [distortion]
	(pretty much the same notes as the intro except on these strings and I
	prefer to play it this way because it sounds better with distortion but
	you can play it the same way the intro is played, it doesn't matter)
D#|-----------------------------------------|
A#|-----------------------------------------|
F#|-------4-4-4-5-4-2-----------------------|
C#|-2-2-------------------5-5--3-3-3-3-3-5--|
G#|-----------------------------------------|
C#|-----------------------------------------|

2nd part of 2nd verse
D#|----------------------|
A#|----------------------|
F#|--4----2----4----2----|
C#|--2----0----2----0----|
G#|--2----0----2----0----|
C#|--2----0----2----0----|

Chorus/Bridge
D#|------------------------------|
A#|------------------------------|
F#|-------4-5-4-2----------------|
C#|--2-2--4-5-4-2--5-5-3333-5----|
G#|--2-2--2-3-2-0--5-5-3333-5----|
C#|--2-2-----------5-5-3333-5----|
		  Or
D#|------------------------------|
A#|------------------------------|
F#|------------------------------|
C#|--2-2--9-10-9-7-5-5-3333-5----|
G#|--2-2--9-10-9-7-5-5-3333-5----|
C#|--2-2--9-10-9-7-5-5-3333-5----|

Heavy Outro 
D#|-----------------------------|
A#|-----------------------------|
F#|-----------------------12----|
C#|--22-222-2-222--222--x-12----|
G#|--22-222-2-222--222--x-10----|
C#|--22-222-2-222--222--x-10----|



10. Forgotten

Tuning: low to high: C#, G#, C#, F#, A#, D#

Main Riff (once with harmonic parts and once without, then repeat)
D#|-------------------------------------|
A#|-------------------------------------|
F#|-------------------------------------|
C#|-32-222-222-3222-32-222-22-----*5----|
G#|-32-222-222-3222-32-222-22--*5-------|
C#|-32-222-222-3222-32-222-22-----------|
    [PALM MUTE ALL]

Verse
D#|--------------------------------------|
A#|--------12*---------------------------|
F#|--------------------------------12*---|
C#|------------7*--------10----12*-------|
G#|-----7*----------7*-------------------|
C#|--7*----------------------------------|

Chorus
D#|-------------------------------------|
A#|-------------------------------------|
F#|------x-9/10-------------------------|
C#|--7-7-x-9/10--10--10-10-10/9-10-10---|
G#|--7-7-x-7/8---10--10-10-10/9-10-10---|
C#|--7-7---------10--10-10-10/9-10-10---|


Bridge (bass converted to guitar) 
D#|-------------------------------|
A#|-------------------------------|
F#|-------------------------------|
C#|-------------------------------|
G#|-------------------------------|
C#|--7-7--5-7--3--3-3-3--2-3-5----|
 play until heavy guitar comes in

Heavy part 
D#|-------------------------------|
A#|-------------------------------|
F#|-------------------------------|
C#|------------3--3-3-3--2-3-5----|
G#|------------3--3-3-3--2-3-5----|
C#|------------3--3-3-3--2-3-5----|
Bass part.....then guitar

D#|-------------------------------|
A#|-------------------------------|
F#|-------------------------------|
C#|--7-7--5-7--3--3-3-3--2-3-5----|
G#|--7-7--5-7--3--3-3-3--2-3-5----|
C#|--7-7--5-7--3--3-3-3--2-3-5----|

Soft Outro after last Chorus
D#|----------------------------------|
A#|----------------------------------|
F#|----------------------------------|
C#|----------------------------------|
G#|-------7-8------------------------|
C#|--7-7--------10--10-10-10/9--10---|



11. Cure for the Itch

No guitar in this song



12. Pushing Me Away

Tuning: low to high: C#, G#, C#, F#, A#, D#

Intro/Verses (usually guitar 1, which is Brad because Mike, who is
guitar 2 and vocals, does a bit of vocals in the verses)
D#|*12----------------*12-------------------------------|
A#|-------*12------*7-----*12-------*12-----------*7----|
F#|----*7-------*5---------------*7--------*12-------*7-|
C#|---------------------------*7---------------*7-------|
G#|----------*7-------------------------*7--------------|
C#|-----------------------------------------------------|

Chorus/Bridge

Guitar 1: Brad (a bit louder and more powerful than guitar 2)
D#|------------------------------------------------------|
A#|------------------------------------------------------|
F#|------------------------------------------------------|
C#|-4-4-44-44--10-10-1010-1010--5-5-55-55--7-77-9-99--0--|
G#|-2-2-22-22--10-10-1010-1010--5-5-55-55--7-77-9-99--0--|
C#|-2-2-22-22--10-10-1010-1010--5-5-55-55--7-77-9-99--0--|

Guitar 2: Mike (not quite sure about this, the same notes could be played
on a different string)
D#|---------------------------------------------------------|
A#|---------------------------------------------------------|
F#|-11-11-1111-12-12-1212------16-16-1616--1414-16-16-1616--|
C#|--x--x--x-x--x--x--x-x--*12--x--x--x-x---x-x--x--x--x-x--|
G#|--9--9--9-9-10-10-1010------14-14-1414--1212-14-14-1414--|
C#|---------------------------------------------------------|


Bridge (both guitars)
D#|-------------------------------------------------------|
A#|-------------------------------------------------------|
F#|-------------------------------------------------------|
C#|-10-10-1010-1010-12-12-1212-1212-7-7-77-77-4-44--55-9--|
G#|-10-10-1010-1010-12-12-1212-1212-7-7-77-77-4-44--55-9--|
C#|-10-10-1010-1010-12-12-1212-1212-7-7-77-77-4-44--55-9--|

D#|--------------------------------------------------------|
A#|--------------------------------------------------------|
F#|--------------------------------------------------------|
C#|-10-10-1010-1010-12-12-1212-1212-7-7-77-77-4-44--55-xx--|
G#|-10-10-1010-1010-12-12-1212-1212-7-7-77-77-4-44--55-xx--|
C#|-10-10-1010-1010-12-12-1212-1212-7-7-77-77-4-44--55-xx--|

End - Guitar 2
D#|--------------------------------|
A#|--------------------------------|
F#|-16161616161616-16161616161616--|
C#|--x-x-x-x-x-x-x--x-x-x-x-x-x-x--|
G#|-14141414141414-14141414141414--|
C#|--------------------------------|



METEORA

1. Foreword

No guitar in this song


2. Don't Stay

Tuning: low to high: [dropped-B]  B, F#, B, E, G#, C#
Note: Normally, in a song with such low tuning, Brad would use a 7-string Ibanez
but in this case, as said in the interview with him in Guitar World Magazine, he
uses an Ibanez 6-string RG model that has an extended scale, which allows for
thicker strings and lower tuning without making it sound like crap. A regular
6-string won't give you as good a sound as an extended scale or 7-string with
such a low tuning. Enough said.

Intro/verse [quiet fuzz, with lots of treble and flange]
C#|--------------------|
G#|--------------------|
E |--------------------|
B |--------------------|
F#|--0-0h7/3-5-5h8-7---|
B |--0-0h7/3-5-5h8-7---|

Heavier part of Verse and Main Riff [Heavy distortion]
C#|------------------------|
G#|------------------------|
E |------------------------|
B |--0-00-0h7/3-5-55h8-7---|
F#|--0-00-0h7/3-5-55h8-7---|
B |--0-00-0h7/3-5-55h8-7---|

Heavy Part when Chester screams [after 3 on verse riff]
C#|------------|
G#|------------|
E |------------|
B |--1-11-xxx--|
F#|--1-11-xxx--|
B |--1-11-xxx--|
 [PALM MUTE ALL]

Chorus
C#|-----------------------------|
G#|-----------------------------|
E |-----------------------------|
B |--0-0-0h7-8-10/5-5-5/7\3\1---|
F#|--0-0-0h7-8-10/5-5-5/7\3\1---|
B |--0-0-0h7-8-10\5-5-5/7\3\1---|

Bridge
C#|----------------------|
G#|----------------------|
E |-------------55/8-8---|
B |--0--0h1-1-0-xx/x-x---|
F#|--0--0h1-1-0-33/6-6---|
B |--0--0h1-1-0----------|


3. Somewhere I Belong

Tuning: low to high: A#, D#, G#, C#, F#, A#

MUST READ IF YOU WANT TO PLAY IT CORRECTLY: Ok, if you want to play it exactly
like LP then keep reading, but its so annoying and confusing, because LP have
so many alternate tunings and guitar layering and stuff it makes it hard to
understand and I think this song is the most complicated to figure out. If you
don't care if it's perfect or not, stop reading and scroll to the bottom where
I have tabs for this song in the more preferred dropped-db tuning, which is
similar and it practically sounds the same, just not as heavy. This will settle
all the controversy over how to play this song and what tuning they use.

In Guitar World Magazine, Brad explains about his tuning for this song:
"DELSON: ... instead of playing a 7-string, I'm using an Ibanez Prestige
that's in standard 440, but I'm leaving the high E string off and starting
with a low B instead. So it's B, E, A, D, G, B. And the first single,
"Somewhere I Belong" uses that tuning, down a half step." 

In other words, for all you beginners out there, is that he tunes it to a
standard tuning for a 7-string guitar, and since he never uses the high E string,
he chose to take that same tuning with the heavy B string -which is the
7th string- and convert that onto a 6-string, subtracting the high E string
that he never uses. After that, he down-tunes every string half a step, so
it's A#, D#, G#, C#, F#, A#. I personally prefer the 7-string guitar concept,
and he could have used dropped-db (C#) tuning in this song but he probably goes
baritone (like Staind) and use very thick strings, most likely 7-string type
strings or bass/baritone type, with a low B instead of down-tuning an E string.
In this case, Brad himself told us the tuning and could it be anymore correct
than coming from Big Bad Brad himself?

But, if I were you, and do NOT have the thick strings, then I wouldn't play it
with this tuning, it would just sound like crap with regular strings, I've tried
it. And, I dont have a 7-string or the right strings so I had to tab it myself
with my small amount of knowledge of scales and notes etc.... and god damn it
was frustrating so bear with me if I messed up a bit. I recommend just play it
in the C# tuning that I placed at the bottom. But if you're a guitar nerd and
wanna play it exactly like LP, here it is.

On with the tab...

Guitar intro (00:11) and Verses
Guitar 1: Brad
A#|------12-10-----12-----12-10-----------12-10-----12-----12-10------|
F#|--11---------11----11---------11---11---------11----11---------11--|
C#|9--------------------------------9---------------------------------|
G#|-------------------------------------------------------------------|
D#|-------------------------------------------------------------------|
A#|-------------------------------------------------------------------|

Quick part right before choruses while Intro is still being played  
Guitar 2: Mike
A#|--------|
F#|--------|
C#|---9----| 
G#|---x----| slowly increasing volume knob
D#|---7----|
A#|--------|

Before Choruses only at the end of the 2 verses

Guitar 2: Mike
A#|-----------------|
F#|-----------------|
C#|-----------------| 
G#|-----------------|
D#|-----------------|
A#|-*5*5*5*5*5*5*5--|

Intro/ Chorus

Guitar 1: Brad
A#|-------------------------|        |-------------------------|
F#|-------------------------|        |-------------------------|
C#|-------------------------| x3 on  |-------------------------|
G#|-9999-5555-10101010-7777-| Chorus |-9999-5555-12121212-7777-|
D#|-7777-5555-10101010-7777-| only   |-7777-5555-12121212-7777-|
A#|-7777-3333--8-8-8-8-5555-|        |-7777-3333-10101010-5555-|

Guitar 2: Mike (Im pretty sure this is played with distortion, plus some sort
of melodic and octave pedal... either that or a keyboard is playing the same
guitar part with the guitar)
A#|----------------------------|        |---------------------------|
F#|-8888--9999--11111111--9999-|        |-8888-9999-----------------|
C#|-xxxx--xxxx---x-x-x-x--xxxx-| x3 on  |-xxxx-xxxx-11111111-9999---|
G#|-6666--7777---9-9-9-9--7777-| Chorus |-6666-7777--x-x-x-x-xxxx---|
D#|----------------------------| only   |------------9-9-9-9-7777---|
A#|----------------------------|        |---------------------------|

After Chorus, beginning of Verses only
Guitar 2: Mike
A#|--------|
F#|--------|
C#|---9----| Slowly decreasing volume knob while verse starts
G#|---x----| and Guitar 1 begins to play verse riff
D#|---7----|
A#|--------|

Bridge - both guitars 
A#|-------------------------------------------|
F#|-----1111-------1111-------1111------6/7-6-|
C#|--99--x-x--------x-x--------x-x------x/x-x-| 
G#|--99--9-9--1010--9-9--1212--9-9--77--4/5-4-| x2
D#|--77-------1010-------1212-------77--------| 
A#|--00--------8-8-------1010-------55--------|

A#|-------------------------------------------|
F#|-----1111--------14--------1111------6/7-6-|
C#|--99--x-x---------x---------x-x------x/x-x-| 
G#|--99--9-9--1010--12---1212--9-9--77--4/5-4-|
D#|--77-------1010-------1212-------77--------| 
A#|--00--------8-8-------1010-------55--------|

A#|-------------------------------------------|
F#|-----1111-------1111---------9-------6/7---|
C#|--99--x-x--------x-x---------x-------x/x-9-| 
G#|--99--9-9--1010--9-9--1212---7---77--4/5-x-|
D#|--77-------1010-------1212-------77------7-| 
A#|--00--------8-8-------1010-------55--------|

Outro

Guitar 1: Brad
A#|-------------------|
F#|-------------------|
C#|-------------------| 
G#|-999999------------| 
D#|-777777------------|
A#|-777777--*5*5*5*5--|

Guitar 2: Mike
A#|-------------------|
F#|-------------------|
C#|-------------------| 
G#|-222222------------| 
D#|-222222------------|
A#|-000000--*5*5*5*5--|

Most of you know that the main tune by Mr Hahn in this song was in fact
Chester playing a "folk-ish" chord progression on his acoustic guitar,
and then Mike and Joe reversed it so the sound fades in. This made a
sweeping sound which they liked, then they tweaked it a little, and
chopped it up so that they could replace the notes in the original order.
Heres a tab of the original chord progression that Chester wrote:

Standard tuning

E|---------------------|
B|-2-------------------|
G|-3----3----5----2----| 
D|-3----4----6----4----| 
A|-1----4----6----4----|
E|------2----4----2----|



4. Lying From You

Tuning: low to high: C#, G#, C#, F#, A#, D#

Quick distorted riff (play kinda muted with your wrist barely pressing the
bridge/tailpiece of the guitar to make a distorted crunch sound)
D#|----------|
A#|----------|
F#|----------|
C#|-2-2-2-2--|
G#|-2-2-2-2--|
C#|-2-2-2-2--|
  [PALM MUTE]

Intro Heavy Riff/Bridge
D#|----------------------------|
A#|----------------------------|
F#|----------------------------|
C#|--0-2-2-1-0-3-2-1--0-0--6---|
G#|--0-2-2-1-0-3-2-1--0-0--6---|
C#|--0-2-2-1-0-3-2-1--0-0--6---|
				 (don't play last note last time round)

Verse x2				 3rd time
D#|----------------------| 	D#|----------------------|
A#|----------------------| 	A#|----------------------|
F#|-------77-------------| 	F#|-------77-------------|
C#|-22----77----00-000---| 	C#|-22----77----00-4-00--|
G#|-22----55----00-000---| 	G#|-22----55----00-4-00--|
C#|-22----55----00-000---| 	C#|-22----55----00-4-00--|

4th time
D#|----------------------|
A#|----------------------|
F#|-------77777----------|
C#|-22----77777-00-0-0---|
G#|-22----55555-00-0-0---|
C#|-22----55555-00-0-0---|

Chorus
D#|------------------------------------------|
A#|------------------------------------------|
F#|-------1111-1111\77-7/9-99--777-77--------|
C#|-2-2--x-x-x--x-x\xx-x/x-xx--777-77-00-00--|
G#|-2-2--x-9-9--9-9\55-5/7-77--555-55-00-00--|
C#|-2-2--x---------------------555-55-00-00--|

D#|--------------------------------------------|
A#|--------------------------------------------|
F#|-------1111-1111\77-7/9-99------------------|
C#|-5-5--x-x-x--x-x\xx-x/x-xx--777-77-00-4-0---|
G#|-3-3--x-9-9--9-9\55-5/7-77--777-77-00-4-0---|
C#|-3-3--x---------------------777-77-00-4-0---|

Last time after 2nd chorus and at the end of the song
D#|-------------------------------------|
A#|-------------------------------------|
F#|-------------------------------------|
C#|-7-7-7-77-77-7-7--7-7-7-77-00-x-0-0--|
G#|-7-7-7-77-77-7-7--7-7-7-77-00-x-0-0--|
C#|-7-7-7-77-77-7-7--7-7-7-77-00-x-0-0--|


5. Hit the Floor

Tuning: low to high: C#, G#, C#, F#, A#, D#

Intro/Verse (with soft distortion and high treble, play on the second
highest treble pickup setting on the guitar and strum close to the bridge/tailpiece)
D#|-------------------|
A#|-------------------|
F#|-------------------|
C#|-------------------|
G#|-------------------|
C#|--0-4-0-1--1-1-0---|
   [PALM MUTE ALL]

D#|----------|
A#|----------|
F#|----------|
C#|-0-8887---|
G#|-0-8887---|
C#|-0-8887---|


Main Riff/Chorus (on the last time at the end of the song, palm mute
very sharply and quickly)
D#|--------------------|
A#|--------------------|
F#|--------------------|
C#|-0401-110--0-8887---|
G#|-0401-110--0-8887---|
C#|-0401-110--0-8887---|
   [PALM MUTE ALL]

Bridge Part  "and then it's all gone..."
D#|-------------------------|
A#|-------------------------|
F#|-------------------------|
C#|-0-0-0--55---0-0-0--33---|
G#|-0-0-0--33---0-0-0--11---|
C#|-0-0-0--33---0-0-0--11---|
   [PALM MUTE ALL]


6. Easier to Run

Tuning: low to high: A#, D#, G#, C#, F#, A#

NOTE: This is only for those who want to know how to play it EXACTLY the way
Linkin Park does. The explanation about the tuning is at the Somewhere I Belong
tab above and the Easier To Run tab in drop-db (C#) tuning is way at the bottom,
but it wont have the correct harmonic notes unlike the 100% correct tab below.

Again, if you don't have baritone or really heavy gauge strings (or a 7-string)
then I would strongly suggest you play in the C# tuning. Down-tuning regular
gauge strings will make it sound like crap, honestly.

Intro/Verses 

Guitar 1: Brad
A#|----------------------------------|
F#|-----------*12---*12--------------|
C#|------------------------------*7--| 
G#|----*7----------------------------| 
D#|-*7----*7------------------*7-----|
A#|----------------------*3----------|


Before Chorus

Guitar 2: Mike
A#|-------|
F#|--9----|
C#|--x----| 
G#|--7-<= Slowly increasing volume
D#|-------|
A#|-------|

Chorus

Guitar 1: Brad
A#|------------------------|
F#|------------------------|
C#|------------------------| 
G#|--7---10----12----9-----| 
D#|--7----8----10----7-----|
A#|--5----8----10----7-----|

Guitar 2: Mike
A#|------------------------|
F#|------------------------|
C#|------------------------| 
G#|--7----3-----5----2-----| 
D#|--7----3-----5----2-----|
A#|--5----1-----3----0-----|

After Chorus

Guitar 2: Mike
A#|-------|
F#|--9----|
C#|--x----| 
G#|--7--<= Slowly decreasing volume knob while verse starts
D#|-------|
A#|-------|

Bridge

Guitar 1: Brad
A#|--------------------------------------------------|
F#|--------------------------------------------------|
C#|--------------------------------------------------| 
G#|-10----12----14----9----10----12----12----12------| 
D#|--8----10----12----7-----8----10----10----10------|
A#|--8----10----12----7-----8----10----10----10------|

Guitar 2: Mike
A#|--------------------------------------------------|
F#|--------------------------------------------------|
C#|--------------------------------------------------| 
G#|--3-----5-----7----2-----3-----5-----5-----5------| 
D#|--3-----5-----7----2-----3-----5-----5-----5------|
A#|--1-----3-----5----0-----1-----3-----3-----3------|

Then pick slide.... to chorus

End

Guitar 1: Brad
A#|-------|
F#|-------|
C#|-------| 
G#|--*9---| 
D#|-------|
A#|-------|


7. Faint

Tuning: C#, G#, C#, F#, A#, D#

Quick Intro Part Before Chorus Riff

Guitar 1: Brad (played before almost every chorus)
D#|----------|
A#|----------|
F#|--7777----|
C#|--xxxx----|
G#|--5555----|
C#|----------|

Guitar 2: Mike
D#|-----|
A#|-----|
F#|-----|
C#|-0-<= slowly increases volume until chorus starts
G#|-0---|
C#|-0---|

Chorus/Main Riff

Guitar 1: Brad
D#|---------------------------------|
A#|---------------------------------|
F#|-777/1414\1212-121212/1414\1010--|
C#|-xxx/-x-x\-x-x--x-x-x/-x-x\-x-x--|
G#|-555/1212\1010-101010/1212\-8-8--|
C#|---------------------------------|

Guitar 2: Mike (played once for every 2 times Guitar 1 part is played,
you'll figure it out)
D#|---------------------------------------|
A#|---------------------------------------|
F#|---------------------------------------|
C#|--0-0-0-0--5-5-5-5--8-8-8-8--55-77-3---|
G#|--0-0-0-0--3-3-3-3--8-8-8-8--55-77-3---|
C#|--0-0-0-0--3-3-3-3--8-8-8-8--55-77-3---|


Verse - both guitars
D#|-----|-----|-----|-----------|
A#|-----|-----|-----|-----------|
F#|-----|-----|-----|-----------|
C#|--0--|--0--|--0--|--8----5---|
G#|--0--|--0--|--0--|--8----5---|
C#|--0--|--0--|--0--|--8----5---|


Bridge - both guitars
D#|-------------------------|
A#|-------------------------|
F#|-------------------------|
C#|--0-7-3232---00-7-3232---|
G#|--0-7-3232---00-7-3232---|
C#|--0-7-3232---00-7-3232---|

End

Guitar 1: Brad
D#|-------------|
A#|-------------|
F#|-1010--888---|
C#|--x-x--xxx---|
G#|--8-8--666---|
C#|-------------|

Guitar 2: Mike
D#|-------------|
A#|-------------|
F#|-------------|
C#|-3-3---111---|
G#|-3-3---111---|
C#|-3-3---111---|


8. Figure.09

Tuning: low to high: C#, G#, C#, F#, A#, D#

Intro/Quiet Bridge
D#|--------------------------------------|
A#|--------------------------------------|
F#|--------------------------------------|
C#|--------------------------------------|
G#|-5---8--5---8--5---8---5h6-5h6-5-5h6--|
C#|---0------0------0--------------------|

D#|-------------------------------------|
A#|-------------------------------------|
F#|-------------------------------------|
C#|----------------------0h1-1111-0h1---|
G#|-5---8--5---8--5---8--0h1-1111-0h1---|
C#|---0------0------0----0h1-1111-0h1---|

Main Riff
D#|--------------------------------------|
A#|--------------------------------------|
F#|---7------7------7--------------------|
C#|-0-x-5--0-x-5--0-x-5--0h1-1111-0h1----|
G#|-0-5-3--0-5-3--0-5-3--0h1-1111-0h1----|
C#|-0---3--0---3--0---3--0h1-1111-0h1----|

Verse (play twice, then play Main Riff)
D#|--------------------------------------|
A#|--------------------------------------|
F#|----7------7------7-------------------|
C#|-0--x---0--x---0--x---0h1-1111-0h1----|
G#|-0--5---0--5---0--5---0h1-1111-0h1----|
C#|-0------0------0------0h1-1111-0h1----|

Quick Pre-Chorus part (soft, quiet distortion)
D#|----------------------|
A#|----------------------|
F#|----------------------|
C#|-00-8--00-8--00-8--0--|
G#|-00-8--00-8--00-8--0--|
C#|----------------------|

Chorus
D#|------------------------------------------|
A#|------------------------------------------|
F#|------------------------------------------|
C#|-0-0-810-0h3-3-55-7---0-0-810-0h3-3-55-3--|
G#|-0-0-8-8-0h3-3-55-7---0-0-8-8-0h3-3-55-1--|
C#|-0-0-8-8-0h3-3-55-7---0-0-8-8-0h3-3-55-1--|

D#|------------------------------------------|
A#|------------------------------------------|
F#|------------------------------------------|
C#|-0-0-810-0h3-3-55-7---0-0-810-0h3-3-77-1--|
G#|-0-0-8-8-0h3-3-55-7---0-0-8-8-0h3-3-77-1--|
C#|-0-0-8-8-0h3-3-55-7---0-0-8-8-0h3-3-77-1--|


Riff after 2nd Chorus 
D#|--------------|
A#|--------------|
F#|--------------|
C#|-1111111111---|
G#|-1111111111---|
C#|-1111111111---|


Heavy Bridge
D#|-------------------------------------|
A#|-------------------------------------|
F#|---------------11-----------------7--|
C#|-1-0-xxx-0h2/3--x--1-0-xxx-0h2/3--x--|
G#|-1-0-xxx-0h2/3--9--1-0-xxx-0h2/3--5--|
C#|-1-0-xxx-0h2/3-----1-0-xxx-0h2/3-----|
			Or
D#|---------------------------------------|
A#|---------------------------------------|
F#|---------------------------------------|
C#|-1-0-xxx-0h2/3------1-0-xxx-0h2/3------|
G#|-1-0-xxx-0h2/3------1-0-xxx-0h2/3------|
C#|-1-0-xxx-0h2/3--*9--1-0-xxx-0h2/3--*5--|

Last Chorus
D#|------------------------------------------|
A#|------------------------------------------|
F#|------------------------------------------|
C#|-0-0-810-0h3-3-55-7---0-0-810-0h3-3-55-7--|
G#|-0-0-8-8-0h3-3-55-7---0-0-8-8-0h3-3-55-7--|
C#|-0-0-8-8-0h3-3-55-7---0-0-8-8-0h3-3-55-7--|

D#|------------------------------------------|
A#|------------------------------------------|
F#|------------------------------------------|
C#|-0-0-810-0h3-3-55-7---0-0-810-0h3-3-77-1--|
G#|-0-0-8-8-0h3-3-55-7---0-0-8-8-0h3-3-77-1--|
C#|-0-0-8-8-0h3-3-55-7---0-0-8-8-0h3-3-77-1--|

End
D#|--------------|
A#|--------------|
F#|--------------|
C#|-1111111111---|
G#|-1111111111---|
C#|-1111111111---|


9. Breaking the Habit

Standard Tuning: low to high: E, A, D, G, B, e

Note: All the guitar parts in this song are acoustic guitar.

Keyboard tune [converted to guitar]
e|------------------------------------------|
B|----10-8-7----10-8-7------8-7-----10-8-7--|
G|-9----------9---------9---------9---------|
D|------------------------9-----------------|
A|------------------------------------------|
E|------------------------------------------|

Acoustic Guitar Verse
e|---------------------------------------|
B|---------------------------------------|
G|---------------------------------------|
D|---------*12-----------------10--------|
A|-----*12----------------*12------------|
E|-*7----------*7-*7---*7---------*7-*7--|

Chorus
e|--------------------|
B|--------------------|
G|--------------------|
D|-------*12-*12------|
A|---------------*7---|
E|-*7-*7--------------|

"So I'm breaking the habit..." and Bridge
e|--------------------|
B|--------------------|
G|-------*12-*12------|
D|----*7----------*7--|
A|-*7-----------------|
E|--------------------|



10. From the Inside

Tuning: low to high: C#, G#, C#, F#, A#, D#

Note: both Brad and Mike play guitar in this song but play the same parts
unlike songs such as Crawling and Faint.

DJ Sample (Intro and background Chorus, Bridge)
D#|-------------------------|
A#|-------------------------|
F#|---------------*12-------|
C#|-*7-*12-*7-*12-----*12---|
G#|-------------------------|
C#|-------------------------|

Chorus
D#|------------------------------------|
A#|-3-3-3------------------------------|
F#|-2-2-2------------------------------|
C#|-0-0-0---3-3-3---8-8-8---5-5--7-7---|
G#|-0-0-0---3-3-3---8-8-8---5-5--7-7---|
C#|-0-0-0---3-3-3---8-8-8---5-5--7-7---|

Verse (only Guitar 1 plays this)
D#|---------------------------------------------|
A#|---------------------------------------------|
F#|-----------------------*12----*12------------|
C#|-*7-*12-*7-*12-*7-*12-----*12----*12----*12--|
G#|-------------------------------------*7------|
C#|---------------------------------------------|

D#|---------------------------------------------|
A#|---------------------------------------------|
F#|-----------------------------------10--------|
C#|-*7-*12-*7-*12-*7-------10-----10------------|
G#|---------------------*7-----*7-------*7------|
C#|---------------------------------------------|

Quick part before Chorus (some choruses only, you'll figure out when)
D#|------------------|
A#|------------------|
F#|------------------|
C#|------------------|
G#|------------------|
C#|-*12-*12-*12-*12--|

Bridge
D#|-----------------------|
A#|-----------------------|
F#|-----------------------|
C#|-00-0-0-----0h1-1-11---|
G#|-00-0-0-x3--0h1-1-11---|
C#|-00-0-0-----0h1-1-11---|

D#|---------------------------------|
A#|---------------------------------|
F#|---------------------------------|
C#|-00-00------0-1--[1-11-111]------| x6
G#|-00-00-*7---0-1--[1-11-111]------|
C#|-00-00------0-1--[1-11-111]------|
			  (only on 3rd time)

D#|-----------------|
A#|-----------------|
F#|-----------------|
C#|-11-1-1-11-1-1---|
G#|-11-1-1-11-1-1---|
C#|-11-1-1-11-1-1---|

End (last time play slightly muted (x) with your fingers barely pressing the
string at the bridge/tailpiece of the guitar to make that crunch distorted sound)
D#|---------|
A#|---------|
F#|---------|
C#|-00-0-0--| x4
G#|-00-0-0--|
C#|-00-0-0--|



11. Nobody's Listening

Tuning: low to high: C#, G#, C#, F#, A#, D#

Chorus (all notes played slightly muted (x), with your fingers barely pressing
on the string at the bridge/tailpiece of the guitar to make the brief crunch
distorted sound like in the song)
D#|---------------------------------|
A#|---------------------------------|
F#|---------------------------------|
C#|-33-33---44-444---33-33---11-44--|
G#|-33-33---44-444---33-33---11-44--|
C#|-33-33---44-444---33-33---11-44--|
  [PALM MUTE ALL]



12. Session

No guitar in this song



13. Numb

Tuning: low to high: C#, G#, C#, F#, A#, D#

DJ Sample converted to guitar
D#|----------15--18-17-----------18-17-----|
A#|-15-18-15------------15-18-15-------18--|
F#|----------------------------------------|
C#|----------------------------------------|
G#|----------------------------------------|
C#|----------------------------------------|

Quick part before chorus
D#|-------|
A#|-------|
F#|-------|
C#|-5-<=gradually increases volume
G#|-------|
C#|-------|

Chorus
D#|---------------------|
A#|---------------------|
F#|---------------------|
C#|--5----1----8----3---|
G#|--5----1----8----3---|
C#|--5----1----8----3---|

Background guitar in verse (clean)
D#|---------------------------------------------------------|
A#|---------------------------------------------------------|
F#|--*12-----*7----*12-----*7----*12-----*7----*12-----*7---|
C#|------*12-----------*12-----------*12-----------*12------|
G#|---------------------------------------------------------|
C#|---------------------------------------------------------|

Bridge
D#|------------------------------|
A#|------------------------------|
F#|------------------------------|
C#|-1--3--5--7-8-0--1--3--0--0---|
G#|-1--3--5--7-8-0--1--3--0--0---|
C#|-1--3--5--7-8-0--1--3--0--0---|




=======================================================================
=======================================================================
Other Songs


A.06

Tuning: low to high: C#, G#, C#, F#, A#, D#


Intro (play with high treble and slightly muted, with your wrist barely pressing
the string at the bridge/tailpiece of the guitar)
D#|----------------------------------|
A#|----------------------------------|
F#|----------------------------------|
C#|----------------------------------|
G#|----------------------------------|
C#|--7-0-0-0-1-0-0-0--0-1-0-1-0-0-0--|

Main Riff
D#|----------------------------------|
A#|----------------------------------|
F#|----------------------------------|
C#|--0-2-1-0-6-0-2-3-0-3-4-0-7-3-1---|
G#|--0-2-1-0-6-0-2-3-0-3-4-0-7-3-1---|
C#|--0-2-1-0-6-0-2-3-0-3-4-0-7-3-1---|



My December

Tuning: low to high: C#, G#, C#, F#, A#, D#

Main Tune (piano)
D#|-------------------------------------|
A#|-------------------------------------|
F#|-------------------------------------|
C#|-1-4-3-4--1-4-3-4-----4-3-4----4-3-4-|
G#|--------------------4--------4-------|
C#|-------------------------------------|

Soft Guitar tune
D#|----------------------------------|
A#|----------------------------------|
F#|--*12-*12--*7------*12-*12--------|
C#|----------------------------*7----|
G#|----------------------------------|
C#|----------------------------------|


High Voltage Remix

Tuning: low to high: C#, G#, C#, F#, A#, D#

[I don't think you can hear any guitar in this song, but when played live,
there's definitely guitar being played. To clearly hear the guitar parts,
visit http://www.lpfan.com/main.php3?page=video and watch the High Voltage
live video and listen to it]

Keyboard Tune converted to guitar
D#|-----------9----------------|
A#|--9--12-11----12-11-9-8-9---|
F#|----------------------------|
C#|----------------------------|
G#|----------------------------|
C#|----------------------------|

Guitar Verse Riff 
D#|-------------------------------------------|
A#|---16-14-16--17-17-16----16-14-16----------|
F#|13---------------------13---------16-16-15-|
C#|-------------------------------------------|
G#|-------------------------------------------|
C#|-------------------------------------------|

2nd Part of 2nd Verse 
D#|---------------------------------------------15-|
A#|---16----16-14-16---16-----16----16-14-16-17----|
F#|15----16----------16----15----16----------------|
C#|------------------------------------------------|
G#|------------------------------------------------|
C#|------------------------------------------------|

Chorus (is strummed every time Mike says "High Voltage"
D#|-------|
A#|-------|
F#|--13---|
C#|-------|
G#|-------|
C#|-------|
  [let note ring]





It's Goin' Down (X-ECUTIONERS w/ LINKIN PARK)

Tuning: low to high: C#, G#, C#, F#, A#, D#

D#|------|
A#|------|
F#|------|
C#|--0---| <= quickly increasing volume
G#|--0---|
C#|--0---|

Main Riff (strum harmonic notes near bridge/tailpiece of guitar)
D#|------------------------------------------------------|
A#|------------------------------------------------------|
F#|------------------------------------------------------|
C#|-0-0--0-0h1-00-0-----------------00-0-xh1--0-10--0-10-|
G#|-0-0--0-0h1-00-0-----------------00-0-xh1--0-10--0-10-|
C#|-0-0--0-0h1-00-0-*10*10*10-*10---00-0-xh1--0-10--0-10-|
Or
D#|------------------------------------------------------|
A#|------------------------------------------------------|
F#|---------------------------------------------5-----5--|
C#|-0-0--0-0h1-00-0-----------------00-0-xh1--0-5---0-5--|
G#|-0-0--0-0h1-00-0-----------------00-0-xh1--0-3---0-3--|
C#|-0-0--0-0h1-00-0-*6-*-6-*6--*6---00-0-xh1--0-----0----|

For those who would prefer: instead of playing harmonic 10 or 6, some of you
might prefer to play harmonic 2.6 - place your finger two thirds of the way
past the 2nd fret, close to the third fret (0.5-1cm from the third fret,
1.5-2cm from the 2nd fret). It pretty much makes the same sound as harmonic 6 and 10

Verses
D#|--------------------------|
A#|--------------------------|
F#|--------------------------|
C#|-00-0h1-0-----0-10--0-10--|
G#|-00-0h1-0-----0-10--0-10--|
C#|-00-0h1-0-----0-10--0-10--|

End (very quietly and softly)
D#|--------|
A#|--------|
F#|--------|
C#|--------|
G#|--------|
C#|--*10---|





==========================================================================

Songs in Drop-Db (C#) tuning


Somewhere I Belong 

Tuning: low to high: C#, G#, C#, F#, A#, D#

Intro/Verse - repeat
Guitar 1: Brad 
D#|-------------------------------------|
A#|--------12-10------12-----12-10------|
F#|----11----------11----11---------11--|
C#|--9----------------------------------|
G#|-------------------------------------|
C#|-------------------------------------|

Guitar 2: Mike
D#|-------|
A#|-------|
F#|--4----|
C#|--x-<= slowly increasing volume
G#|--2----|
C#|-------|


Intro/Chorus

Guitar 1: Brad
D#|---------------------|        D#|---------------------|
A#|---------------------|	   A#|---------------------|
F#|---------------------| x3 on  F#|---------------------|
C#|-4444-0000-5555-2222-| Chorus C#|-4444-0000-7777-2222-|
G#|-2222-0000-5555-2222-| only   G#|-2222-0000-7777-2222-|
C#|-4444-0000-5555-2222-|        C#|-4444-0000-7777-2222-|

Guitar 2: Mike
D#|--------------------------|        D#|----------------------|
A#|--------------------------|        A#|----------------------|
F#|-8888-9999-11111111--9999-| x3 on  F#|-8888-9999-6666--4444-|
C#|-xxxx-xxxx--x-x-x-x--xxxx-| Chorus C#|-xxxx-xxxx-xxxx--xxxx-|
G#|-6666-7777--9-9-9-9--7777-| only   G#|-6666-7777-4444--2222-|
C#|--------------------------|        C#|----------------------|

After Chorus, beginning of Verses only
Guitar 2: Mike
D#|--------|
A#|--------|
F#|---4----| Slowly decreasing volume knob while verse starts
C#|---x----| and Guitar 1 begins to play verse riff
G#|---2----|
C#|--------|

Bridge - both guitars
D#|---------------------------------------|
A#|---------------------------------------|
F#|----1111-----1111-----1111------6/7-6--|
C#|-99--x-x--55--x-x--77--x-x--22--x/x-x--| x2
G#|-99--9-9--55--9-9--77--9-9--22--4/5-4--|
C#|-99-------55-------77-------22---------|

D#|---------------------------------------|
A#|---------------------------------------|
F#|----1111------14------1111------6/7-6--|
C#|-99--x-x--55---x---77--x-x--22--x/x-x--|
G#|-99--9-9--55--12---77--9-9--22--4/5-4--|
C#|-99-------55-------77-------22---------|

D#|---------------------------------------|
A#|---------------------------------------|
F#|----1111-----1111------9-9------6/7-4--|
C#|-99--x-x--55--x-x--77--x-x--22--x/x-x--|
G#|-99--9-9--55--9-9--77--7-7--22--4/5-2--|
C#|-99-------55-------77-------22---------|

Outro:

Guitar 1: Brad
D#|-----------------------|
A#|-----------------------|
F#|-----------------------|
C#|--444444---------------|
G#|--222222---------------|
C#|--444444--*4-*4-*4-*4--|

Guitar 2: Mike
D#|-----------------------|
A#|-----------------------|
F#|-----------------------|
C#|--999999---------------|
G#|--999999---------------|
C#|--999999--*4-*4-*4-*4--|


Easier To Run

Tuning: low to high: C#, G#, C#, F#, A#, D#

Intro (actually in harmonics but is impossible to play it in this tuning)
D#|------------------------------|
A#|------------------------------|
F#|-----------12---12-11----14---|
C#|----14--9-------------9-------|
G#|-14---------------------------|
C#|------------------------------|

Before Chorus
D#|-------|
A#|-------|
F#|--8----|
C#|--x--<= slowly increasing volume
G#|--6----|
C#|-------|

Chorus

Guitar 1: Brad
D#|-----------------------|
A#|-----------------------|
F#|-----------------------|
C#|--2----5----7----4-----|
G#|--2----3----5----2-----|
C#|--2----5----7----4-----|

Guitar 2: Mike
D#|-----------------------|
A#|-----------------------|
F#|--9----5----7----4-----|
C#|--x----x----x----x-----|
G#|--7----3----5----2-----|
C#|-----------------------|

After Chorus
D#|-------|
A#|-------|
F#|--8----|
C#|--x--<= slowly decreasing volume
G#|--6----|
C#|-------|


Bridge

Guitar 1: Brad
D#|---------------------------------------------|
A#|---------------------------------------------|
F#|---------------------------------------------|
C#|--5----7----9----4-----5----7----7----7------|
G#|--3----5----7----2-----3----5----5----5------|
C#|--5----7----9----4-----5----7----7----7------|

Guitar 2: Mike
D#|---------------------------------------------|
A#|---------------------------------------------|
F#|--5----7----9----4-----5----7----7----7------|
C#|--x----x----x----x-----x----x----x----x------|
G#|--3----5----7----2-----3----5----5----5------|
C#|---------------------------------------------|

End
D#|-------|
A#|-------|
F#|-------|
C#|--*9---|
G#|-------|
C#|-------|

That's all the tabs for now. I didn't double check them all cuz that would take
forever so dont mind me if i made mistakes. If you wanna give me corrections email
me at shutup_when_im_talkin_to_you@hotmail.com. thanks

Brad and Mike use:

-Paul Reed Smith Custom 24 electric guitar
-Ibanez Prestige and RG 6 and 7 string guitars
- RG7620, Artwood Ibanez Acoustic Guitar
-Mesa/Boogie Dual Rectifier ampheads (Brad and Mike get their distortion thru their
 amp heads instead of an effects pedal
-Mesa/Boogie 4x12 cabinets
-Marshall cabinets and ampheads
-Shure UHF guitar wireless
-Boss TU-2 Chromatic Tuner
-Boss CS-3 Compression Sustainer pedal
-Boss DD-5 Digital Delay pedal
-Boss CE-5 Chorus Ensemble pedal
-Furman PL Plus power conditioner
-D'Addario Strings (heavy gauge)
-D'Addario Cables
-Shure Wireless
-Dunlop .83 mm pick

Enjoy
comments
print report bad tab
75 comments total. Showing first comments. show 1 bad comment
0 reply
thm_05 wrote on February 4 2004, 12:00 am

how did you get to tab without being registered? unless...

+2 reply
TiMaRmStRoNg101 wrote on February 4 2004, 12:00 am

...

I want to post or [tab]
guest
You may want to rate the tab now too:
select rating
Please do not post tabs as comments. Select "correction" instead!