Oops, an error
Loading. Please wait.

Mark The Graves Tab

ver1
ver1

Whole song

Interactive

More versions @911Tabs.com
3,334 views 81 this week
2 commentsread comments
1 2 3 4 5
excellent!
x 4
Autoscroll
+/-
esc
set tempo
stop
Contributor
Difficulty
Tuning
intermediate
D A D G B E
Hey! There's an official Ultimate Guitar app which is ideal
for learning songs when you're away from computer. Get the app
WARNING: You are trying to view
                                    content from Ultimate-Guitar.com
                                    in an unauthorized application,
                                    which is prohibited.

                                    Please use an official Ultimate
                                    Guitar Tabs application for iPhone,
                                    iPad or Android to access legitimate
                                    chords, guitar, bass, and drum tabs
                                    from Ultimate-Guitar.com database.

                                    Type "ultimate guitar tabs" in Apple
                                    App Store's or Android Market's
                                    search to find the application.
Mark The Graves - Tab

Tuning: Dropped D

Note I: This is one of the new songs from Linkin Park's new 
album, "The Hunting Party."  Yes, I did get the album early.

Note II: To try to make it easier to understand, I split the 
intro into three parts.  The times show how long and when 
you play that particular part of the song.

[Intro: Part I (0:05-0:25)]
[Guitar I]
[0:05-0:18]
[x2]
E|------------------------------------------------------------|
B|------------------------------------------------------------|
G|-11----14----11----14----11----14----11----14---------------|
D|----12----12----12----12----12----12----12----12------------|
A|------------------------------------------------------------|
D|------------------------------------------------------------|

E|------------------------------------------------------------|
B|------------------------------------------------------------|
G|-13----16----13----16----13----16----13----16---------------|
D|----14----14----14----14----14----14----14----14------------|
A|------------------------------------------------------------|
D|------------------------------------------------------------|

[0:19-0:25]
[x1]
E|------------------------------------------------------------|
B|------------------------------------------------------------|
G|-10-10-10-10-10-10-10-10-12-12-12-12-12-12-12-12------------|
D|-x--x--x--x--x--x--x--x--x--x--x--x--x--x--x--x-------------|
A|-8--8--8--8--8--8--8--8--10-10-10-10-10-10-10-10------------|
D|------------------------------------------------------------|

E|------------------------------------------------------------|
B|------------------------------------------------------------|
G|-14-14-14-14-14-14-14-14-14-14-14-14-14-14-14-14------------|
D|-x--x--x--x--x--x--x--x--x--x--x--x--x--x--x--x-------------|
A|-12-12-12-12-12-12-12-12-12-12-12-12-12-12-12-12------------|
D|------------------------------------------------------------|

[0:05-0:18]
[Guitar II]
[x4]
E|------------------------------------------------------------|
B|------------------------------------------------------------|
G|-9-9-9-9-9-9-9-9/16-16-16-16\14-14-14-14--------------------|
D|-x-x-x-x-x-x-x-x/x--x--x--x-\x--x--x--x---------------------|
A|-7-7-7-7-7-7-7-7/14-14-14-14\12-12-12-12--------------------|
D|------------------------------------------------------------|

[0:19-0:25]
E|------------------------------------------------------------|
B|------------------------------------------------------------|
G|-10-10-10-10-10-10-10-10-10-10-10-10-10-10-10-10------------|
D|-10-10-10-10-10-10-10-10-10-10-10-10-10-10-10-10------------|
A|-8--8--8--8--8--8--8--8--8--8--8--8--8--8--8--8-------------|
D|------------------------------------------------------------|

E|------------------------------------------------------------|
B|------------------------------------------------------------|
G|------------------------------------------------------------|
D|-3-3-3-3-3-3-3-3-3-3-3-3-3-3-3-3----------------------------|
A|-3-3-3-3-3-3-3-3-3-3-3-3-3-3-3-3----------------------------|
D|-3-3-3-3-3-3-3-3-3-3-3-3-3-3-3-3----------------------------|

[0:12-0:18]
[Guitar III]
E|------------------------------------------------------------|
B|------------------------------------------------------------|
G|-9-9-9-9-9----9-9-9-9-9----9-9-9-9-9----9-9-9-9-9-----------|
D|-9-9-9-9-9----9-9-9-9-9----9-9-9-9-9----9-9-9-9-9-----------|
A|-7-7-7-7-7----7-7-7-7-7----7-7-7-7-7----7-7-7-7-7-----------|
D|------------------------------------------------------------|

[0:19-0:25]
E|------------------------------------------------------------|
B|------------------------------------------------------------|
G|-10-10-10-10-10-10-10-10-10-10-10-10-10-10-10-10------------|
D|-10-10-10-10-10-10-10-10-10-10-10-10-10-10-10-10------------|
A|-8--8--8--8--8--8--8--8--8--8--8--8--8--8--8--8-------------|
D|------------------------------------------------------------|

E|------------------------------------------------------------|
B|------------------------------------------------------------|
G|------------------------------------------------------------|
D|-3-3-3-3-3-3-3-3-3-3-3-3-3-3-3-3----------------------------|
A|-3-3-3-3-3-3-3-3-3-3-3-3-3-3-3-3----------------------------|
D|-3-3-3-3-3-3-3-3-3-3-3-3-3-3-3-3----------------------------|

[Short Silence from 0:26-0:27]
______________________________________________________________

[Intro: Part II (0:28-0:56)]
[0:28-0:41]
[Guitar I]
[x2]
E|------------------------------------------------------------|
B|------------------------------------------------------------|
G|-9-9-9-9----9-9-9-9----7-7-7-7----7-7-7-7-------------------|
D|-x-x-x-x----x-x-x-x----x-x-x-x----x-x-x-x-------------------|
A|-7-7-7-7----7-7-7-7----5-5-5-5----5-5-5-5-------------------|
D|------------------------------------------------------------|

[0:28-0:41]
[Guitar II/Guitar III]
E|------------------------------------------------------------|
B|------------------------------------------------------------|
G|------------------------------------------------------------|
D|-2-3-0-2----2-3-0-2----2-3-0-2----2-3-0-2----2-3-0-2--------|
A|-2-3-0-2----2-3-0-2----2-3-0-2----2-3-0-2----2-3-0-2--------|
D|-2-3-0-2----2-3-0-2----2-3-0-2----2-3-0-2----2-3-0-2--------|

E|------------------------------------------------------------|
B|------------------------------------------------------------|
G|------------------------------------------------------------|
D|-2-5-3-2----2-3-0-2----2-5-3-2------------------------------|
A|-2-5-3-2----2-3-0-2----2-5-3-2------------------------------|
D|-2-5-3-2----2-3-0-2----2-5-3-2------------------------------|

[0:41-0:56]
[Guitar I]
[x2]
E|------------------------------------------------------------|
B|------------------------------------------------------------|
G|------------------------------------------------------------|
D|------------------------------------------------------------|
A|------------------------------------------------------------|
D|-7-(x16)--5-(x16)--0-(x16)--2-(x16)-------------------------|

[Short Silence from 0:57-0:59]
______________________________________________________________

[Intro: Part III (1:00-1:14)]
[Guitar II/Guitar III]
[x3]
E|------------------------------------------------------------|
B|------------------------------------------------------------|
G|------------------------------------------------------------|
D|-3-2-0-3-2--3-2-0-5-7---------------------------------------|
A|-3-2-0-3-2--3-2-0-5-7---------------------------------------|
D|-3-2-0-3-2--3-2-0-5-7---------------------------------------|

[x1]
E|------------------------------------------------------------|
B|------------------------------------------------------------|
G|------------------------------------------------------------|
D|-3-2-0-3-2-0-3-2-0-3-2-0-2----------------------------------|
A|-3-2-0-3-2-0-3-2-0-3-2-0-2----------------------------------|
D|-3-2-0-3-2-0-3-2-0-3-2-0-2----------------------------------|


[Verse I (1:14-1:55)]
[Verse I extends into the beginning of the interlude between 
Verse I and Verse II]
[Guitar I]
[x6]
E|------------------------------------------------------------|
B|------------------------------------------------------------|
G|-11-11-11-14-11-11-14-11-14-11-11-14-11-11-14-11/13-13-13---|
D|-12-12-12-12-12-12-12-12-12-12-12-12-12-12-12-12/14-14-14---|
A|------------------------------------------------------------|
D|------------------------------------------------------------|

E|------------------------------------------------------------|
B|------------------------------------------------------------|
G|-16-13-13-16-13-16-13-13-16-13-13-16-13---------------------|
D|-14-14-14-14-14-14-14-14-14-14-14-14-14---------------------|
A|------------------------------------------------------------|
D|------------------------------------------------------------|

[Verse I/II Interlude (1:56-2:10)]
[Guitar I (Hard to hear over Guitar II/III, but still played)]
[x2]
E|------------------------------------------------------------|
B|------------------------------------------------------------|
G|-11-11-11-14-11-11-14-11-14-11-11-14-11-11-14-11/13-13-13---|
D|-12-12-12-12-12-12-12-12-12-12-12-12-12-12-12-12/14-14-14---|
A|------------------------------------------------------------|
D|------------------------------------------------------------|

E|------------------------------------------------------------|
B|------------------------------------------------------------|
G|-16-13-13-16-13-16-13-13-16-13-13-16-13---------------------|
D|-14-14-14-14-14-14-14-14-14-14-14-14-14---------------------|
A|------------------------------------------------------------|
D|------------------------------------------------------------|

[Guitar II/III]
E|------------------------------------------------------------|
B|------------------------------------------------------------|
G|------------------------------------------------------------|
D|-6-7-6-4-2-0-0-0-0-0-0-0-0-9-9-9-9-7-7-7-7-2-2-2-2-2-2-2-2--|
A|-6-7-6-4-2-0-0-0-0-0-0-0-0-9-9-9-9-7-7-7-7-2-2-2-2-2-2-2-2--|
D|-6-7-6-4-2-0-0-0-0-0-0-0-0-9-9-9-9-7-7-7-7-2-2-2-2-2-2-2-2--|

E|------------------------------------------------------------|
B|------------------------------------------------------------|
G|------------------------------------------------------------|
D|-2-2-2------------------------------------------------------|
A|-2-2-2------------------------------------------------------|
D|-2-2-2------------------------------------------------------|

E|------------------------------------------------------------|
B|------------------------------------------------------------|
G|------------------------------------------------------------|
D|-6-7-6-4-2-0-0-0-0-0-0-0-0-9-9-9-9-7-7-7-7-2-2-2-2-2-2-2-2--|
A|-6-7-6-4-2-0-0-0-0-0-0-0-0-9-9-9-9-7-7-7-7-2-2-2-2-2-2-2-2--|
D|-6-7-6-4-2-0-0-0-0-0-0-0-0-9-9-9-9-7-7-7-7-2-2-2-2-2-2-2-2--|

E|------------------------------------------------------------|
B|------------------------------------------------------------|
G|------------------------------------------------------------|
D|-2-2-2-2-2-2-2-2--------------------------------------------|
A|-2-2-2-2-2-2-2-2--------------------------------------------|
D|-2-2-2-2-2-2-2-2--------------------------------------------|

[Verse II (2:11-2:37)]
[2:11-2:37]
[Guitar I]
[x4]
E|------------------------------------------------------------|
B|------------------------------------------------------------|
G|-11-11-11-14-11-11-14-11-14-11-11-14-11-11-14-11/13-13-13---|
D|-12-12-12-12-12-12-12-12-12-12-12-12-12-12-12-12/14-14-14---|
A|------------------------------------------------------------|
D|------------------------------------------------------------|

E|------------------------------------------------------------|
B|------------------------------------------------------------|
G|-16-13-13-16-13-16-13-13-16-13-13-16-13---------------------|
D|-14-14-14-14-14-14-14-14-14-14-14-14-14---------------------|
A|------------------------------------------------------------|
D|------------------------------------------------------------|

[2:25-2:37]
[Guitar II]
E|------------------------------------------------------------|
B|------------------------------------------------------------|
G|------------------------------------------------------------|
D|-6-7-6-4-2-0~----9--7--2~----6-7-6-4-2-0~----9--7--2~-------|
A|-6-7-6-4-2-0~----9--7--2~----6-7-6-4-2-0~----9--7--2~-------|
D|-6-7-6-4-2-0~----9--7--2~----6-7-6-4-2-0~----9--7--2~-------|

[Chorus (2:38-3:07)]
[Guitar II/III]
[x3]
E|------------------------------------------------------------|
B|------------------------------------------------------------|
G|------------------------------------------------------------|
D|-6-7-6-4-2-0-0-0-0-0-0-0-0-9-9-9-9-7-7-7-7-2-2-2-2-2-2-2-2--|
A|-6-7-6-4-2-0-0-0-0-0-0-0-0-9-9-9-9-7-7-7-7-2-2-2-2-2-2-2-2--|
D|-6-7-6-4-2-0-0-0-0-0-0-0-0-9-9-9-9-7-7-7-7-2-2-2-2-2-2-2-2--|

E|------------------------------------------------------------|
B|------------------------------------------------------------|
G|------------------------------------------------------------|
D|-2-2-2------------------------------------------------------|
A|-2-2-2------------------------------------------------------|
D|-2-2-2------------------------------------------------------|

[x1]
E|------------------------------------------------------------|
B|------------------------------------------------------------|
G|------------------------------------------------------------|
D|-6-7-6-4-2-0-0-0-0-0-0-0-0-9-9-9-9-7-7-7-7-2-2-2-2-2-2-2-2--|
A|-6-7-6-4-2-0-0-0-0-0-0-0-0-9-9-9-9-7-7-7-7-2-2-2-2-2-2-2-2--|
D|-6-7-6-4-2-0-0-0-0-0-0-0-0-9-9-9-9-7-7-7-7-2-2-2-2-2-2-2-2--|

E|------------------------------------------------------------|
B|------------------------------------------------------------|
G|------------------------------------------------------------|
D|-2-2-2-6-7-6-4-2--------------------------------------------|
A|-2-2-2-6-7-6-4-2--------------------------------------------|
D|-2-2-2-6-7-6-4-2--------------------------------------------|

[Solo/Interlude (3:04-3:55)]
[3:04-3:22]
[Guitar I (First note is picked at 3:04 before chorus ends)]
E|------------------------------------------------------------|
B|------------------------------------------------------------|
G|------------11~----14~--13~-------------11~--------14~------|
D|-14~-------------------------14~----------------------------|
A|------------------------------------------------------------|
D|------------------------------------------------------------|

E|------------------------------------------------------------|
B|------------------------------------------------------------|
G|-13-------14b-------14----13-------14----13----14-------16--|
D|----14/16-----14/16----14----14/16----14----14----14/16-----|
A|------------------------------------------------------------|
D|------------------------------------------------------------|

E|------------------------------------------------------------|
B|------------------------------------------------------------|
G|-------16----14-13-------14-13----14------------------------|
D|-14/16----14-------14-16-------16----14v~-------------------|
A|------------------------------------------------------------|
D|------------------------------------------------------------|

[3:08-3:22]
[Guitar II/III]
E|------------------------------------------------------------|
B|------------------------------------------------------------|
G|------------------------------------------------------------|
D|-7-6-4-0--0---7-6-4-0--0---7-6-4-2--2---7-6-4-2--2----------|
A|-7-6-4-0--0---7-6-4-0--0---7-6-4-2--2---7-6-4-2--2----------|
D|-7-6-4-0--0---7-6-4-0--0---7-6-4-2--2---7-6-4-2--2----------|

E|------------------------------------------------------------|
B|------------------------------------------------------------|
G|------------------------------------------------------------|
D|-7-6-4-0--0---7-6-4-0--0---7-6-4-7-6-4-7-6-4-7-6-4----------|
A|-7-6-4-0--0---7-6-4-0--0---7-6-4-7-6-4-7-6-4-7-6-4----------|
D|-7-6-4-0--0---7-6-4-0--0---7-6-4-7-6-4-7-6-4-7-6-4----------|

[3:22-3:35]
[Guitar I]
[x2]
E|------------------------------------------------------------|
B|------------------------------------------------------------|
G|-11----14----11----14----11----14----11----14---------------|
D|----12----12----12----12----12----12----12----12------------|
A|------------------------------------------------------------|
D|------------------------------------------------------------|

E|------------------------------------------------------------|
B|------------------------------------------------------------|
G|-13----16----13----16----13----16----13----16---------------|
D|----14----14----14----14----14----14----14----14------------|
A|------------------------------------------------------------|
D|------------------------------------------------------------|

[3:36-3:42]
[x1]
E|------------------------------------------------------------|
B|------------------------------------------------------------|
G|-10-10-10-10-10-10-10-10-12-12-12-12-12-12-12-12------------|
D|-x--x--x--x--x--x--x--x--x--x--x--x--x--x--x--x-------------|
A|-8--8--8--8--8--8--8--8--10-10-10-10-10-10-10-10------------|
D|------------------------------------------------------------|

E|------------------------------------------------------------|
B|------------------------------------------------------------|
G|-14-14-14-14-14-14-14-14-14-14-14-14-14-14-14-14------------|
D|-x--x--x--x--x--x--x--x--x--x--x--x--x--x--x--x-------------|
A|-12-12-12-12-12-12-12-12-12-12-12-12-12-12-12-12------------|
D|------------------------------------------------------------|

[3:29-3:35]
[Guitar II]
[x2]
E|------------------------------------------------------------|
B|------------------------------------------------------------|
G|-9-9-9-9-9-9-9-9/16-16-16-16\14-14-14-14--------------------|
D|-x-x-x-x-x-x-x-x/x--x--x--x-\x--x--x--x---------------------|
A|-7-7-7-7-7-7-7-7/14-14-14-14\12-12-12-12--------------------|
D|------------------------------------------------------------|

[3:36-3:42]
[Guitar II]
[x1]
E|------------------------------------------------------------|
B|------------------------------------------------------------|
G|-10-10-10-10-10-10-10-10-12-12-12-12-12-12-12-12------------|
D|-x--x--x--x--x--x--x--x--x--x--x--x--x--x--x--x-------------|
A|-8--8--8--8--8--8--8--8--10-10-10-10-10-10-10-10------------|
D|------------------------------------------------------------|

E|------------------------------------------------------------|
B|------------------------------------------------------------|
G|-14-14-14-14-14-14-14-14-14-14-14-14-14-14-14-14------------|
D|-x--x--x--x--x--x--x--x--x--x--x--x--x--x--x--x-------------|
A|-12-12-12-12-12-12-12-12-12-12-12-12-12-12-12-12------------|
D|------------------------------------------------------------|

[3:29-3:35]
[Guitar III]
[x4 (Palm mute after each repeat)]
E|------------------------------------------------------------|
B|------------------------------------------------------------|
G|------------------------------------------------------------|
D|-2-2-2-2-2--------------------------------------------------|
A|-2-2-2-2-2--------------------------------------------------|
D|-2-2-2-2-2--------------------------------------------------|

[x2 (Palm mute after each repeat)]
E|------------------------------------------------------------|
B|------------------------------------------------------------|
G|------------------------------------------------------------|
D|-3-3-3-3-3--------------------------------------------------|
A|-3-3-3-3-3--------------------------------------------------|
D|-3-3-3-3-3--------------------------------------------------|

[3:36-3:42]
[x1]
E|------------------------------------------------------------|
B|------------------------------------------------------------|
G|------------------------------------------------------------|
D|-3-3-3-3-3-3-3-3-3-3-3-3-3-3-3-3----------------------------|
A|-3-3-3-3-3-3-3-3-3-3-3-3-3-3-3-3----------------------------|
D|-3-3-3-3-3-3-3-3-3-3-3-3-3-3-3-3----------------------------|

[Short silence right at 3:43]

[3:44-3:55]
[Guitar II/Guitar III]
[x2]
E|------------------------------------------------------------|
B|------------------------------------------------------------|
G|------------------------------------------------------------|
D|-3-2-0-3-2--3-2-0-5-7---------------------------------------|
A|-3-2-0-3-2--3-2-0-5-7---------------------------------------|
D|-3-2-0-3-2--3-2-0-5-7---------------------------------------|

[x1]
E|------------------------------------------------------------|
B|------------------------------------------------------------|
G|------------------------------------------------------------|
D|-3-2-0-3-2-0-3-2-0-3-2-0-2----------------------------------|
A|-3-2-0-3-2-0-3-2-0-3-2-0-2----------------------------------|
D|-3-2-0-3-2-0-3-2-0-3-2-0-2----------------------------------|

[Chorus (3:56-4:22)]
[3:56-4:07]
[Guitar I]
[x2]
E|------------------------------------------------------------|
B|------------------------------------------------------------|
G|-11-11-11-14-11-11-14-11-14-11-11-14-11-11-14-11/13-13-13---|
D|-12-12-12-12-12-12-12-12-12-12-12-12-12-12-12-12/14-14-14---|
A|------------------------------------------------------------|
D|------------------------------------------------------------|

E|------------------------------------------------------------|
B|------------------------------------------------------------|
G|-16-13-13-16-13-16-13-13-16-13-13-16-13---------------------|
D|-14-14-14-14-14-14-14-14-14-14-14-14-14---------------------|
A|------------------------------------------------------------|
D|------------------------------------------------------------|

[4:08-4:22]
[Guitar II/III]
E|------------------------------------------------------------|
B|------------------------------------------------------------|
G|------------------------------------------------------------|
D|-6-7-6-4-2-0-0-0-0-0-0-0-0-9-9-9-9-7-7-7-7-2-2-2-2-2-2-2-2--|
A|-6-7-6-4-2-0-0-0-0-0-0-0-0-9-9-9-9-7-7-7-7-2-2-2-2-2-2-2-2--|
D|-6-7-6-4-2-0-0-0-0-0-0-0-0-9-9-9-9-7-7-7-7-2-2-2-2-2-2-2-2--|

E|------------------------------------------------------------|
B|------------------------------------------------------------|
G|------------------------------------------------------------|
D|-2-2-2------------------------------------------------------|
A|-2-2-2------------------------------------------------------|
D|-2-2-2------------------------------------------------------|

E|------------------------------------------------------------|
B|------------------------------------------------------------|
G|------------------------------------------------------------|
D|-6-7-6-4-2-0-0-0-0-0-0-0-0-9-9-9-9-7-7-7-7-2-2-2-2-2-2-2-2--|
A|-6-7-6-4-2-0-0-0-0-0-0-0-0-9-9-9-9-7-7-7-7-2-2-2-2-2-2-2-2--|
D|-6-7-6-4-2-0-0-0-0-0-0-0-0-9-9-9-9-7-7-7-7-2-2-2-2-2-2-2-2--|

E|------------------------------------------------------------|
B|------------------------------------------------------------|
G|------------------------------------------------------------|
D|-2-2-2-2-2-2-2-2--------------------------------------------|
A|-2-2-2-2-2-2-2-2--------------------------------------------|
D|-2-2-2-2-2-2-2-2--------------------------------------------|

[Outro (4:23-4:44]]
[4:21-4:44]
[Guitar I (First note is picked at 4:21 before chorus ends)]
E|------------------------------------------------------------|
B|------------------------------------------------------------|
G|--------------------------------13~-------13~---------------|
D|-14~----14~--16~----14~----14~-------14v-------14~--16~-----|
A|------------------------------------------------------------|
D|------------------------------------------------------------|

E|------------------------------------------------------------|
B|------17v-------------------------------------15v--16--17v--|
G|-14~------14-13----14-13----14-13----14-13------------------|
D|----------------16-------16-------16-------16---------------|
A|------------------------------------------------------------|
D|------------------------------------------------------------|

E|------------------------------------------------------------|
B|-17p16p15-17p16p15-17p16p15-17p16p15-17p16p15-17p16p15------|
G|------------------------------------------------------------|
D|------------------------------------------------------------|
A|------------------------------------------------------------|
D|------------------------------------------------------------|

E|------------------------------------------------------------|
B|-17p16p15-17p16p15-17p16p15-17p16p15------------------------|
G|------------------------------------------------------------|
D|------------------------------------------------------------|
A|------------------------------------------------------------|
D|------------------------------------------------------------|

[4:23-4:44]
[Guitar II/III]
E|------------------------------------------------------------|
B|------------------------------------------------------------|
G|------------------------------------------------------------|
D|-7-6-4-0--0---7-6-4-0--0---7-6-4-2--2---7-6-4-2--2----------|
A|-7-6-4-0--0---7-6-4-0--0---7-6-4-2--2---7-6-4-2--2----------|
D|-7-6-4-0--0---7-6-4-0--0---7-6-4-2--2---7-6-4-2--2----------|

E|------------------------------------------------------------|
B|------------------------------------------------------------|
G|------------------------------------------------------------|
D|-7-6-4-0--0---7-6-4-0--0---7-6-4-7-6-4-7-6-4-7-6-4----------|
A|-7-6-4-0--0---7-6-4-0--0---7-6-4-7-6-4-7-6-4-7-6-4----------|
D|-7-6-4-0--0---7-6-4-0--0---7-6-4-7-6-4-7-6-4-7-6-4----------|

E|------------------------------------------------------------|
B|------------------------------------------------------------|
G|------------------------------------------------------------|
D|-3-5-3-2-0--0-0--3-5-3-2-0--0-0-----------------------------|
A|-3-5-3-2-0--0-0--3-5-3-2-0--0-0-----------------------------|
D|-3-5-3-2-0--0-0--3-5-3-2-0--0-0-----------------------------|

E|------------------------------------------------------------|
B|------------------------------------------------------------|
G|------------------------------------------------------------|
D|-3-5-3-0-2--2-2--3-5-3-0-2--2-2-----------------------------|
A|-3-5-3-0-2--2-2--3-5-3-0-2--2-2-----------------------------|
D|-3-5-3-0-2--2-2--3-5-3-0-2--2-2-----------------------------|

______________________________________________________________
Key (only including things used in this tab)
/ = slide up
\ = slide down
p = pull off
v = vibrato
x = muted string
~ = let ring
______________________________________________________________

If there's any confusion, questions, or advice on how to 
improve it, please post a comment. Have fun playing, and 
please rate! -Rarrlow
comments
print report bad tab
2 comments total.
+1 reply
JimBonJovi wrote on June 11 2014, 11:16 am

Awesome tab. Thank you for it!

+1 reply
Rarrlow wrote on June 11 2014, 12:12 pm

Certainly man! It certainly took a long time, but awesome song. :)

I want to post or [tab]
guest
You may want to rate the tab now too:
select rating
Please do not post tabs as comments. Select "correction" instead!