Oops, an error
Loading. Please wait.

Meteora Bass Tab

6,225 views 3 this week
5 commentsread comments
1 2 3 4 5
accurate
x 4
Autoscroll
+/-
esc
set tempo
stop
Contributor
Hey! There's an official Ultimate Guitar app which is ideal
for learning songs when you're away from computer. Get the app
WARNING: You are trying to view
                                    content from Ultimate-Guitar.com
                                    in an unauthorized application,
                                    which is prohibited.

                                    Please use an official Ultimate
                                    Guitar Tabs application for iPhone,
                                    iPad or Android to access legitimate
                                    chords, guitar, bass, and drum tabs
                                    from Ultimate-Guitar.com database.

                                    Type "ultimate guitar tabs" in Apple
                                    App Store's or Android Market's
                                    search to find the application.
Band- Linkin Park
Album- Meteora

1.FOREWORD

Don't Know

2.DON'T STAY

Tuning Standard BEADG

Intro/Verse: Guitar has first intro alone
G|------------------------------------|
D|------------------------------------|
A|------------------------------------|
E|------------------------------------|
B|--0-0-0-7-3--5-5-5-8-7--------------|

Chorus:
G|------------------------------------|
D|------------------------------------|
A|------------------------------------|
E|------------------------------------|
B|-0~--0-7-8-10-5~--5-7-3-1--0~-------|

Verse:
G|------------------------------------|
D|------------------------------------|
A|------------------------------------|
E|------------------------------------|
B|--0-0-0-7-3--5-5-5-8-7--------------| x4

Bridge:
G|------------------------------------|
D|------------------------------------|
A|----------(0-0-0-0-0--3--3--3)------|              (   )= Optional/Sounds good
E|------------------------------------|
B|-0-0-1-0----------------------------| x8

end Bridge:
G|--------------------------------------|
D|--------------------------------------|
A|--------------------------------------|
E|--------------------------------------|
B|-1-1-1--1-1-1--1-1-1--1-1-1-1-1-1-1-1-|

3.SOMEWHERE I BELONG

4-String Conversion

Intro
Gb|-------------------- - - - - - - - -----------|
Db|-------------------- - - - - - - - -----------|
Ab|---22222222--------- - - - - - - - -----------|
Bb|-----------88888888101010101010101055555555---|

Gb|-------------------- - - - - - - - ---|
Db|-------------------- - - - - - - - ---|
Ab|---22222222--------- - - - - - - - ---|
Bb|-----------888888881010101010101010---|

Chorus Part-1
Gb|---------------------------------------|
Db|---------------------------------------|
Ab|----------------------------------02---|
Bb|---0-0000--3-333-3-8-88888885-555------|

Chorus Part-2
Gb|-------------------- -- - - -- - -----------|
Db|-------------------- -- - - -- - -----------|
Ab|-------------------- -- - - -- - -----------|
Bb|---0-0000--3-333-3310-101010-10105-555555---|

Verse
Gb|-------------------- -- - - -- - -----------|
Db|-------------------- -- - - -- - -----------|
Ab|---2-222-22--------- -- - - -- - -----------|x3
Bb|-----------8-888-8810-101010-10105-555555---|

Gb|-------------------- -- - - -- - -----------|
Db|-------------------- -- - - -- - -----------|
Ab|---2-222-22--------- -- - - -- - -----------|
Bb|-----------8-888-8810-101010-101035555553---|

Chorus Part-1 x3

Chorus Part-2

Verse

Chorus Part-1 x3

Chorus Part-2

Breakdown
Gb|---------------------- -- ------------|
Db|---------------------- -- ------------|
Ab|---------------------- -- ------------|
Bb|---0-0------8-8------10-10------5-5---|

Gb|---------------------- -- ----------- - ----|
Db|---------------------- -- ----------- - ----|
Ab|---------------------- -- ----------- - ----|x2
Bb|---0-0------8-8------10-10------5-552h3p2---|

Gb|---------------------- --- -- -- - - - ---------------|
Db|---------------------- --- -- -- - - - ---------------|
Ab|---------------------- --- -- -- - - - ----------2*---|
Bb|---0-0------8-8------7h8-10-10-10101010-5-5-----------|

Gb|---------|
Db|---------|
Ab|---------|
Bb|---/8\---|

Chorus Part-1 x3

Ending
Gb|---------------------------- ------ --- ------ -------- --------------------|
Db|---------------------------- ------ --- ------ -------- --------------------|
Ab|---------------------------7h97-7-5h7-7h999999\-5-55555\---------------02---|
Bb|---0-0000--3-333-3-8-888888- ------ --- ------ -------- -8-88888-5-5555-----|

Gb|-------------------- -- - - - - -----------|
Db|-------------------- -- - - - - -----------|
Ab|-------------------- -- - - - - -----------|
Bb|---0-00000-3-33333-10-1010101010-5-55555---|

Gb|-----------------|
Db|-----------------|
Ab|-----------------|x4
Bb|---0-000000000---|

5-String Version (GW Version)

Intro
Gb|--------------------------------------|
Db|--------------------------------------|
Ab|--------------------------------------|
Eb|---77777777333333335555555500000000---|
Bb|--------------------------------------|

Gb|------------------------------|
Db|------------------------------|
Ab|------------------------------|
Eb|---777777773333333355555555---|
Bb|------------------------------|

Chorus Part-1
Gb|---------------------------------- ----|
Db|---------------------------------- ----|
Ab|---------------------------------- ----|
Eb|-------------------3-3333330-000-5h7---|
Bb|---0-0000--3-333-3---------------- ----|

Chorus Part-2
Gb|--------------------------------------|
Db|--------------------------------------|
Ab|--------------------------------------|
Eb|-------------------5-555-55-----------|
Bb|---0-0000--3-333-33--------5-555555---|

Verse
Gb|--------------------------------------|
Db|--------------------------------------|
Ab|--------------------------------------|x3
Eb|---7-777-773-333-335-555-550-000000---|
Bb|--------------------------------------|

Gb|--------------------------------------|
Db|--------------------------------------|
Ab|--------------------------------------|
Eb|---7-777-773-333-335-555-55-----------|
Bb|---------------------------35555553---|

Chorus Part-1 x3

Chorus Part-2

Verse

Chorus Part-1 x3

Chorus Part-2

Breakdown
Gb|------------------------------------|
Db|------------------------------------|
Ab|------------------------------------|x3
Eb|------------3-3------5-5------------|
Bb|---0-0------------------------5-5---|

Gb|---------------------- ---------------|
Db|---------------------- ---------------|
Ab|---------------------- ---------------|
Eb|------------3-3------2h35-5-5-55------|
Bb|---0-0---------------- ---------5-5---|

Gb|---------|
Db|---------|
Ab|---------|
Eb|---------|
Bb|---/0\---|

Chorus Part 1 x3

Ending
Gb|--------------------------- ------ --- ------ -------- ---------------- ----|
Db|--------------------------- ------ --- ------ -------- ---------------- ----|
Ab|--------------------------7h97-7-5h7-7h999999\-5-55555\---------------- ----|
Eb|------------------3-333-3-- ------ --- ------ -------- -3-33333-------5h7---|
Bb|---0-0000-3-333-3---------- ------ --- ------ -------- ---------5-5555- ----|

Gb|-------------------------------------|
Db|-------------------------------------|
Ab|-------------------------------------|
Eb|-------------------5-55555-----------|
Bb|---0-00000-3-33333---------5-55555---|

Gb|-----------------|
Db|-----------------|
Ab|-----------------|x4
Eb|-----------------|
Bb|---0-000000000---|

4.LYING FROM YOU

Tuning: C# G# C# F# A# D#

Heavy Intro RIff
F#|----------------------------------------------------------|
C#|----------------------------------------------------------|
G#|----------------------------------------------------------|
C#|-xxxx----0-2-2-1-0-3-2-1-0---6-----0-2-2-1-0-3-2-1-0----6-|

F#|----------------------------------------------------|
C#|----------------------------------------------------|
G#|----------------------------------------------------|
C#|-0-2-2-1-0-3-2-1-0---6-----0-2-2-1-0-3-2-1----xxxx--|

Verse
F#|-----------------------------------------------|-------------------------|
C#|-----------------------------------------------|-------------------------|
G#|-----------------------------------------------|-------------------------|
C#|--2-2----5-5-----0-0-0----2-2--5-5-5-5-00-000--|---2-2--5-5-5-/-7-7-7----|

Chorus
F#|------------------------------------------------------|
C#|------------------------------------------------------|
G#|------------------------------------------------------|
C#|--2-2--xx--------------------------------55555-00000--|

F#|------------------------------------------------------|
C#|------------------------------------------------------|
G#|------------------------------------------------------|
C#|--5-5--xx--------------------------------77777-00000--|

5.HIT THE FLOOR

Turn your E string into a C#

Intro (begin at 0:08)
G :--------------------|X2|-----------------------------|X3|--------------------|
D :--------------------|X2|-----------------------------|X3|--------------------|
A :--------------------|X2|-----------------------------|X3|--------------------|
C#:-0-4-0-1---1-1-0----|X2|-0-4-0-1---1-1-0---0-8-8-8-7-|X3|-0-4-0-1---1-1-0----|

No bass in the 1st part of the 1st verse

2nd part of the 1st verse (begin at 0:40)
G :--------------------|X4|
D :--------------------|X4|
A :--------------------|X4|
C#:-0-4-0-1---1-1-0----|X4|

Chorus
G :-----------------------------|X4|
D :-----------------------------|X4|
A :-----------------------------|X4|
C#:-0-4-0-1---1-1-0---0-8-8-8-7-|X4|

2nd Verse (listen to the song to play with rythm)
G :------|X8|-----------------------|X4|
D :------|X8|-----------------------|X4|
A :------|X8|-----------------------|X4|
C#:-0--0-|X8|---0-4-0-1---1-1-0--0--|X4|

Bridge
G :----------------------------------|X2|
D :----------------------------------|X2|
A :----------------------------------|X2|
C#:-0--0--0--3-3~------0--0--0--1-1~-|X2|

No Bass in the part before the last chorus

Last Chorus
G :-----------------------------|X4|----------------------------------|X2|
D :-----------------------------|X4|----------------------------------|X2|
A :-----------------------------|X4|----------------------------------|X2|
C#:-0-4-0-1---1-1-0---0-8-8-8-7-|X4|-0--0--0--3-3~------0--0--0--1-1~-|X2|

Outro
G :-------------------------------------------------|
D :-------------------------------------------------|
A :-------------------------------------------------|
C#:-0-4-0-1---1-1-0---0-8-8-8-7---0-4-0-1---1-1-0---|

6.EASIER TO RUN

Intro
G:-------------------- ----------------|
D:-------------------- ----------------|
A:-----------6-------- --------6-------|
E:---6---7-------7---- 7---9-------6---|

G:-------------------- ----------------|
D:-------------------- ----------------|
A:-----------6-------- --------6-------|
E:---6---7-------7---- 7---9-------6---|

"Its Easier to run.........
G:-------------------|
D:-------------------|
A:---6---------------|    x2
E:-------7---9---6---|


Verse
"Something has been taken.....
G:------------ ---------------- -------|
D:-------8---9 ---9---8-------- -------|
A:---6-------- -----------9---8 ---9---|
E:------------ ---------------- -------|

G:------------ ---------------- -------|
D:-------8---9 ---9---8-------- -------|
A:---6-------- -----------9---8 ---9---|
E:------------ ---------------- -------|

G:------------ ---------------- -------|
D:-------8---9 ---9---8-------- -------|
A:---6-------- -----------9---8 ---9---|
E:------------ ---------------- -------|


G:------------ -------------------|
D:-------8---9 ---9---8-----------|
A:---6-------- -----------9---8---|
E:------------ -------------------|

Pre Chorus
"If I could change I would Take back the pain I would.....
G:------------ -------------------|
D:------------ ---------------6---|
A:-------6---- -----------8-------|  x4
E:---7-------7 ---7---9-----------|

Chorus
"Its Easier to run......
G:--------------------------------------------------|
D:--------------------------------------------------|
A:---6---6---6--------------------------------------| x2
E:---------------7---7---7---9---9---9---6---6---6--|

Verse 2
"Sometimes I remember...
G:------------ ---------------- -------|
D:-------8---9 ---9---8-------- -------|
A:---6-------- -----------9---8 ---9---|
E:------------ ---------------- -------|

G:------------ ---------------- -------|
D:-------8---9 ---9---8-------- -------|
A:---6-------- -----------9---8 ---9---|
E:------------ ---------------- -------|

G:------------ ---------------- -------|
D:-------8---9 ---9---8-------- -------|
A:---6-------- -----------9---8 ---9---|
E:------------ ---------------- -------|


G:------------ -------------------|
D:-------8---9 ---9---8-----------|
A:---6-------- -----------9---8---|
E:------------ -------------------|

Pre Chorus:
"If I could change I would Take back the pain I would...
G:------------ -------------------|
D:------------ ---------------6---|
A:-------6---- -----------8-------|  x4
E:---7-------7 ---7---9-----------|

-then-
"Just watching it aside.......
G:--------------------------------------------------|
D:--------------------------------------------------|
A:---------------------------6---6---6--------------| x2
E:---7---7---7---9---9---9---------------9---9---9--|

Chorus:
G:-------------------------------------------------|
D:-------------------------------------------------|
A:---6---6---6-------------------------------------|   till end.......
E:---------------7---7---7---9---9---9---6---6---6-|


7.FAINT

Intro/Chorus
G|-------------------------------------------------|
D|-------------------------------------------------|
A|-----------------------00000000------------------|   x2
Db|--00000000--33333333-------------555--777--33---|

Verse
G|----------------------------------------|
D|----------------------------------------|
A|-------------------------------00--22---|
Db|--0---------0----------0---------------|

Chorus x2
Verse
Chorus x2

Interlude
G|----------------------------------------|
D|----------------------------------------|
A|----------------------------------------|   x4
Db|--0--7--3-2-3-2---00--7--3-2-3-2-------|

Chorus x4

8.FIGURE .09

Intro
G---------------------------------------|
D---------------------------------------|
A---4-----4-----4-----------------------|
E---------------------------------------|
B-2---5-2---5-2---5-23232323------------|

Verse
G---------------------------------------|
D---------------------------------------|
A---4---4---4---------------------------|
E---------------------------------------|
B-2---2---2---23232323------------------|

Verse Part 2
G---------------------------------------|
D---------------------------------------|
A---4-----4-----4-----------------------|
E---------------------------------------|
B-2---5-2---5-2---5-23232323------------|

Chorus
G---------------------------------------|
D---------------------------------------|
A---------------------------------------|
E---5-----2-4---------------------------|
B-2---4/5-------------------------------|

Bridge
G---------------------------------------|
D---------------------------------------|
A---------------------------------------|
E---------------------------------------|
B-3-2-0h2-3-5---------------------------|

9.BREAKING THE HABIT

Turn your E string into a C#

'~' means let it ring

Intro
G :-------------------------------------------|X2
D :-------------------------------------------|X2
A :-----------3~--------2~--------------------|X2
C#:-3~----------------------------------------|X2

No Bass in the 1st verse and in the 1st pre chorus

Chorus
G :-----------------------------------------|X3|----------------------------------------|
D :-----------------------------------------|X3|-----------------------5~---------------|
A :-----------3~--------2~------------------|X3|-3~--------5~--------3--------5~--------|
C#:-3~--------------------------------------|X3|----------------------------------------|

2nd Verse (listen to the song for the rythm)
G :--------------------------------|X4
D :--------------------------------|X4
A :--------------------------------|X4
C#:-3--3-3-1--1-1-3--3-3-3---6-6---|X4

2nd Pre Chorus
G :-----------------------------------------------------------------------------|
D :-----------------------------------------------------------------------------|
A :-3~--------0~--------3~------------2---3~--------0~--------3~----------------|
C#:-----------------------------------------------------------------------------|

Bridge
G :--------------------------------------------|X2
D :--------------------------------------------|X2
A :-------------------------------0~-----------|X2
C#:-3~--------5~--------6~---------------------|X2

Last Chorus
G :-----------------------------------------|X3|---------------------|X2|--------------------|
D :-----------------------------------------|X3|---------------------|X2|---5~---------------|
A :-----------3~--------2~------------------|X3|-3~--------5~--------|X2|-3--------5~--------|
C#:-3~--------------------------------------|X3|---------------------|X2|--------------------|

10.FROM THE INSIDE

Turn your E string into a C#

Intro & 1st Chorus
G :---------------------------------------------------|X2
D :---------------------------------------------------|X2
A :-------------------------00-0-000-0-0--------------|X2
C#:-00-0-000-0-033-3-333-3-3------------55-5-57-7-7---|X2

Verses
G :---------------------------------------------------|X4
D :---------------------------------------------------|X4
A :-------------22-2-22-2-2-00-0-00-0-0---------------|X4
C#:-00-0-00-0-0-------------------------55-5-57-------|X4

2nd Chorus
G :-------------------------------------------------|
D :-------------------------------------------------|
A :-------------------------00-0-000-0-0------------|
C#:-00-0-000-0-033-3-333-3-3------------55-5-57-7-7-|

G :-------------------------------------------------|
D :-------------------------------------------------|
A :-------------------------00-0-000-0-0------------|
C#:-00-0-000-0-033-3-333-3-3------------77-7-77-7-7-|

Bridge
G :-------------------------------------------|
D :-------------------------------------------|
A :-------------------------------------------|
C#:-00-0-0-----00-0-0-----00-0-0-----11-1-1---|

G :-------------------------------------------------------|X2
D :-------------------------------------------------------|X2
A :-------------------------------------------------------|X2
C#:-00-0-0---0-1-00-0-0---0-1-00-0-0---0-1-11-1-111-1-1---|X2

Last Chorus
G :-------------------------------------------------|
D :-------------------------------------------------|
A :-------------------------00-0-000-0-0------------|
C#:-------------------------------------55-5-57-7-7-|

G :-------------------------------------------------|
D :-------------------------------------------------|
A :-------------------------00-0-000-0-0------------|
C#:-00-0-000-0-033-3-333-3-3------------55-5-57-7-7-|

G :-----------------------------------------------------|
D :-----------------------------------------------------|
A :-----------------------------00-0-000-0-0------------|
C#:-00-0-0/12-----33-3-3/15-----------------55-5-57-7-7-|

G :-----------------------------------------------------|
D :-----------------------------------------------------|
A :-----------------------------00-0-000-0-0------------|
C#:-00-0-0/12-----33-3-3/15-----------------77-7-77-7-7-|

G :-------------------------------------------|
D :-------------------------------------------|
A :-------------------------------------------|
C#:-00-0-0-----00-0-0-----00-0-0--------------|

11.NOBODY'S LISTENING

Bass (Phoenix)

G||------|------|------|------|------|------|------|------|------|------|------|
D||------|------|------|------|------|------|------|------|------|------|------|
A||------|------|------|------|------|------|------|------|------|------|------|
E||------|------|------|------|------|------|------|------|------|------|------|
A||------|------|------|------|------|------|------|------|------|------|------|

------|------|------|------|------|----------------------|-------------------|
------|------|------|------|------|----------------------|-------------------|
------|------|------|------|------|----------------------|-------------------|
------|------|------|------|------|----------------------|-------------------|
------|------|------|------|------|--5--5---5---5--------|--6----------------|

----------------------|----------------------|----------------------|
----------------------|----------------------|----------------------|
----------------------|----------------------|----------------------|
----------------------|----------------------|----------------------|
--5--5---5---5--------|--3--3-----6---6------|--5--5---5---5--------|

-------------------|----------------------|----------------------|
-------------------|----------------------|----------------------|
-------------------|----------------------|----------------------|
-------------------|----------------------|----------------------|
--6----------------|--5--5---5---5--------|--3--3-----6---6------|

---------------------|---------------------|----------------------|
---------------------|---------------------|----------------------|
---------------------|---------------------|----------------------|
---------------------|---------------------|----------------------|
--5----5----5--------|----5-----5---5------|--5--5---5---5--------|

-------------------|----------------------|---------------------|
-------------------|----------------------|---------------------|
-------------------|----------------------|---------------------|
-------------------|----------------------|---------------------|
----5--------------|--5--5---5---5--------|----5-----5---5------|

----------------------|---------------------|----------------------|
----------------------|---------------------|----------------------|
----------------------|---------------------|----------------------|
----------------------|---------------------|----------------------|
--5--5---5---5--------|----5-----5---5------|--5--5---5---5--------|

---------------------|----------------------|----------------------|
---------------------|----------------------|----------------------|
---------------------|----------------------|----------------------|
---------------------|----------------------|----------------------|
----5-----5---5------|--5--5---5---5--------|----5-----5---5--5----|

----------------------|-------------------|----------------------|
----------------------|-------------------|----------------------|
----------------------|-------------------|----------------------|
----------------------|-------------------|----------------------|
--5--5---5---5--------|--6----------------|--5--5---5---5--------|

----------------------|----------------------|-------------------|
----------------------|----------------------|-------------------|
----------------------|----------------------|-------------------|
----------------------|----------------------|-------------------|
--3--3-----6---6------|--5--5---5---5--------|--6----------------|

----------------------|----------------------|----|----|----|----|----|----|
----------------------|----------------------|----|----|----|----|----|----|
----------------------|----------------------|----|----|----|----|----|----|
----------------------|----------------------|----|----|----|----|----|----|
--5--5---5---5--------|--3--3-----6---6------|----|----|----|----|----|----|

----|----|----|----|----------------------|-------------------|
----|----|----|----|----------------------|-------------------|
----|----|----|----|----------------------|-------------------|
----|----|----|----|----------------------|-------------------|
----|----|----|----|--5--5---5---5--------|--6----------------|

----------------------|----------------------|----------------------|
----------------------|----------------------|----------------------|
----------------------|----------------------|----------------------|
----------------------|----------------------|----------------------|
--5--5---5---5--------|--3--3-----6---6------|--5--5---5---5--------|

-------------------|----------------------|----------------------|
-------------------|----------------------|----------------------|
-------------------|----------------------|----------------------|
-------------------|----------------------|----------------------|
--6----------------|--5--5---5---5--------|--3--3-----6---6------|

----------------------|-------------------|----------------------|
----------------------|-------------------|----------------------|
----------------------|-------------------|----------------------|
----------------------|-------------------|----------------------|
--5--5---5---5--------|--6----------------|--5--5---5---5--------|

----------------------|----------------------|-------------------|
----------------------|----------------------|-------------------|
----------------------|----------------------|-------------------|
----------------------|----------------------|-------------------|
--3--3-----6---6------|--5--5---5---5--------|--6----------------|

----------------------|----------------------|--------------------|
----------------------|----------------------|--------------------|
----------------------|----------------------|--------------------|
----------------------|----------------------|--------------------|
--5--5---5---5--------|--3--3-----6---6------|--5------------5----|

-------------------|----------------------|--------------------||
-------------------|----------------------|--------------------||
-------------------|----------------------|--------------------||
-------------------|----------------------|--------------------||
--6----------------|--5--5---5---5--------|--3--3--------------||

12.SESSION

Turn your E string into a C#

Riff 1
G :-------------------------------------|
D :-------------------------------------|
A :-------------------------------------|
C#:-4~-------4~-------5~-------2~-------|
(At 0:58 > play it 2 times)
(At 1:36 > play it 2 times)


Riff 2
G :-------------------------------------|
D :-------------------------------------|
A :--------------------------0----------|
C#:-4~-----2-4~-----2-5~-------2~-------|
(At 1:56 > play it 2 times)

13.NUMB

Turn your E string into a C#

Intro (begin at 0:13)

G :-------------------------------------------------|
D :-------------------------------------------------|
A :-------------------------0-0-0-------------------|
C#:-5-5-5-------1-1-1-------------------3-3-3-----7-|


Verses

G :---------------------------------------|X2
D :---------------------------------------|X2
A :--------------------0------------------|X2
C#:-5--------1------------------3---------|X2

1st Pre Chorus

G :--------------------------------------------------|
D :--------------------------------------------------|
A :--------------------------------------------------|
C#:-1------5-3------7-5------7-8---0----1------5-3---|

Chorus (Play it 4 times for the last chorus)

G :---------------------------------------------------|X2
D :---------------------------------------------------|X2
A :-------------------------0-0-0---------------------|X2
C#:-5-5-5-------1-1-1-------------------3-3-3-----7---|X2

2nd Pre Chorus

G :-------------------------------------------|X2
D :-------------------------------------------|X2
A :-------------------------------------------|X2
C#:-1--------5-3--------7-5-------7-8---0-----|X2

Bridge

G :---------------------------------------------------|
D :---------------------------------------------------|
A :---------------------------------------------------|
C#:-1-1-1----1-1-3-3-3----3-3-5-5-5-7-7-7-8-8-8-0-0-0-|

G :---------------------------------------------------------------------|
D :---------------------------------------------------------------------|
A :---------------------------------------------------------------------|
C#:-1-1-1----1-1-3-3-3----3-3-0-0-0----0-0-0-0-0----0-0/12-12--10-10--8-|
comments
print report bad tab
5 comments total. Showing first comments.
0 reply
Treyko wrote on December 24 2004, 12:00 am

somewhere i belong is wrong.

0 reply
Treyko wrote on December 24 2004, 12:00 am

numb is also wrong. wat did u do take my tabs and other peoples and just add it together without giving credit to a single person???

0 reply
mitchftw wrote on August 17 2006, 12:26 pm

andrew, you suck.

I want to post or [tab]
guest
You may want to rate the tab now too:
select rating
Please do not post tabs as comments. Select "correction" instead!