Oops, an error
Loading. Please wait.

Meteora Tab

ver3
ver3
More versions @911Tabs.com
3,344 views 3 this week
12 commentsread comments
1 2 3 4 5
accurate
x 8
Autoscroll
+/-
esc
set tempo
stop
Contributor
Hey! There's an official Ultimate Guitar app which is ideal
for learning songs when you're away from computer. Get the app
WARNING: You are trying to view
                                    content from Ultimate-Guitar.com
                                    in an unauthorized application,
                                    which is prohibited.

                                    Please use an official Ultimate
                                    Guitar Tabs application for iPhone,
                                    iPad or Android to access legitimate
                                    chords, guitar, bass, and drum tabs
                                    from Ultimate-Guitar.com database.

                                    Type "ultimate guitar tabs" in Apple
                                    App Store's or Android Market's
                                    search to find the application.
Album: Meteora
Artist:Linkin Park
Author: lyingfromyou118
E-mail: anthony11888@hotmail.com

Okay guys no matter what anyone says, this is right, if you think it's wrong
take it up with the band. If you want midis or PT files of a song, e-mail me.
Also note, I completed the whole album over a couple months, so the formats 
are a little bit different for each few songs. Enjoy. 

   **Notes in parentheses are notes tied to the previous one.**
   **Measures with 2 "o"s at the end of them mean to repeat the
   measure the number of times indicated above the measure. If 
   there are no numbers, it is repeated once.**

===========================================================================

2. Don't Stay

Tuning (B F# B E G# C#) or 7-string (B F# B E G# C# F#)

Moderate Rock - Quarter=86
       
Intro and Verse Pt.1
 4/4                              
|-------------------------------------||
|-------------------------------------||
|-------------------------------------||
|-0-0-0-7-(7)-3-3-5-5-5-8-(8)-7-7-----||
|-0-0-0-7-(7)-3-3-5-5-5-8-(8)-7-7-----||
|-0-0-0-7-(7)-3-3-5-5-5-8-(8)-7-7-----||



Verse Pt. 2                        
|---------------------------------|
|---------------------------------|
|---------------------------------|
|-0-0-0-7-(7)-3-3-1-1-1--x-x-x----|
|-0-0-0-7-(7)-3-3-1-1-1--x-x-x----|
|-0-0-0-7-(7)-3-3-1-1-1--x-x-x----|


Chorus
|-----------------|--------------------||
|-----------------|--------------------||
|-----------------|--------------------||
|-0--0-7-8-(8)-10-|-5--5-7-3-(3)-1-----||
|-0--0-7-8-(8)-10-|-5--5-7-3-(3)-1-----||
|-0--0-7-8-(8)-10-|-5--5-7-3-(3)-1-----||


Bridge pt. 1 (3 times)
|----------------------------------||
|----------------------------------||
|--------------5-5-5-5-(5)-5/8-----||
|-0-0-0-1--1-0---------------------||
|-0-0-0-1--1-0-3-3-3-3-(3)-3/6-----||
|-0-0-0-1--1-0---------------------||

Bridge pt. 2 (Once)    1/4 Bend
|--------------------------------------|
|--------------------------------------|
|--------------5-5-5-5-5b--------------|
|-0-0-0-1--1-0-------------------------|
|-0-0-0-1--1-0-3-3-3-3-3b--------------|
|-0-0-0-1--1-0-------------------------|

Bridge pt. 1 (3 times)
|----------------------------------||
|----------------------------------||
|--------------5-5-5-5-(5)-5/8-----||
|-0-0-0-1--1-0---------------------||
|-0-0-0-1--1-0-3-3-3-3-(3)-3/6-----||
|-0-0-0-1--1-0---------------------||

Bridge pt. 3
|---------------------------|------------------------------|
|---------------------------|------------------------------|
|---------------------------|------------------------------|
|-0-0-0-1--1-0-1-1-1--x-x-x-|-1-1-1--x-x-x-1-1-1--x-x-x----|
|-0-0-0-1--1-0-1-1-1--x-x-x-|-1-1-1--x-x-x-1-1-1--x-x-x----|
|-0-0-0-1--1-0-1-1-1--x-x-x-|-1-1-1--x-x-x-1-1-1--x-x-x----|

Bridge pt. 4
 2/4
|--------------------|
|--------------------|
|--------------------|
|-0-1-1-1-1-1-1-1----|
|-0-1-1-1-1-1-1-1----|
|-0-1-1-1-1-1-1-1----|

===========================================================================

3. Somewhere I Belong

Tuning (Eb Ab Db Gb Bb Eb)

  Moderate Rock - Q=80
 
4/4

Intro 1 & Verse(acoustic backwards using Pro Tools)
|------|-----------|
|-3----|----0-0----|
|-4--4-|-6--0-0----|
|-4--5-|-7--0h2----|
|-2--5-|-7--0h2----|
|----3-|-5--0-0----|


Intro 2 & Verse (clean electric) comes in while Intro 1 continues 
|------------------------------|
|--------10-----------10-------|
|---11------11---11------11----|
|-9----9-------9----9----------|
|------------------------------|
|------------------------------|


This little part fades in from piano to fortissimo on an overdriven 
electric right before the chorus.
|----|---------|
|----|---------|
|-11-|-(11)----|
|--9-|--(9)----|
|----|---------|
|----|---------|

Intro 3 and Chorus
|---------------------------|----------------------------------|
|---------------------------|----------------------------------|
|-8-8-8-8-8-8-8-9-9-9-9-9-9-|-11-11-11-11-11-11-9-9-9-9-9-9----|
|---------------------------|----------------------------------|
|-6-6-6-6-6-6-6-7-7-7-7-7-7-|--9--9--9--9--9--9-7-7-7-7-7-7----|
|---------------------------|----------------------------------|

                          (only play at the end of the chorus)
|-------------------------|------------------------------|
|-------------------------|------------------------------|
|-8-8-8-8-8-8-9-9-9-9-9-9-|-6-6-6-6-6-4-4-4-4-4-4-4-4----|
|-------------------------|------------------------------|
|-6-6-6-6-6-6-7-7-7-7-7-7-|-4-4-4-4-4-2-2-2-2-2-2-2-2----|
|-------------------------|------------------------------|


Then listen to the song as you will hear both intro parts used
throughout the verses. The chorus remains the same.

Then the bridge comes in, the order is a 
bit tricky so I'll explain the best I can.

|---------------------------|------------------------|
|---------------------------|------------------------|
|--11-11-11-11--11-11-11-11-|--11-11-11-11--6/7\6----|
|---------------------------|------------------------| Play twice
|---9--9--9--9---9--9--9--9-|---9--9--9--9--4/5\4----|
|---------------------------|------------------------|


|------------------|
|------------------|
|--11-11--14-14----|
|------------------| Play once
|---9--9--12-12----|
|------------------|


|---------------------------|------------------------|
|---------------------------|------------------------|
|--11-11-11-11--11-11-11-11-|--11-11-11-11--6/7\6----|
|---------------------------|------------------------| Play twice
|---9--9--9--9---9--9--9--9-|---9--9--9--9--4/5\4----|
|---------------------------|------------------------|


|-------------------|
|-------------------|
|--9-9-9--4-7/4-----|
|-------------------| Play once then go back to the chorus.
|--7-7-7--2-5/2-----|
|-------------------|
 
Then listen for the ending which goes like this:
|----------------------------------------|
|----------------------------------------|
|----------------------------------------| 3 times
|-4-4-4-4-4-4-4-4-4-4--------------------|
|-4-4-4-4-4-4-4-4-4-4--------------------|
|-2-2-2-2-2-2-2-2-2-2-<7>-<7>-<7>-<7>----|


|-------------------------------|
|-------------------------------|
|-------------------------------|
|-4-4-4-4-4-4-4-4-4-4-(4)-4-----| 1 time
|-4-4-4-4-4-4-4-4-4-4-(4)-4-----|
|-2-2-2-2-2-2-2-2-2-2-(2)-2-----|

===========================================================================

4. Lying From You

  Moderately Slow - Q=74
 4/4
  
Crunchy Intro part
 PM-----|
|---------|
|---------|
|---------|
|-2-2-2-2-|
|-2-2-2-2-|
|-2-2-2-2-|

Intro
|----------------------|
|----------------------|
|----------------------|
|-0-2-1-0-3-2-1-0-6----|
|-0-2-1-0-3-2-1-0-6----|
|-0-2-1-0-3-2-1-0-6----|

Verse, Listen for these there are rests
|-------|------------------|
|-------|------------------|
|-------|------------------|
|-2-2---|-7-7---0-0-0-0----| Play 3 times
|-2-2---|-5-5---0-0-0-0----|
|-2-2---|-5-5---0-0-0-0----|


|-------|----------------------------|
|-------|----------------------------|
|-------|----------------------------|
|-2-2---|-7-7-7-7-7-7-(7)------------|Play 1 time
|-2-2---|-5-5-5-5-5-5-(5)-9-9-9-9----|
|-2-2---|-5-5-5-5-5-5-(5)-7-7-7-7----|


Chorus (played twice)
|---------------------------------|----------------------------|
|---------------------------------|----------------------------|
|-------11-11-11-11/7-7-7-7\9-9-9-|----------------------------|
|-2-2-x---------------------------|-7-7-7-7-7-7-(7)-7-7-7-7----|
|-2-2-x--9--9--9--9/5-5-5-5\7-7-7-|-5-5-5-5-5-5-(5)-0-0-0-0----|
|-2-2-x---------------------------|-5-5-5-5-5-5-(5)-0-0-0-0----|


|---------------------------------|----------------------------|
|---------------------------------|----------------------------|
|-------11-11-11-11/7-7-7-7\9-9-9-|----------------------------|
|-5-5-x---------------------------|-7-7-7-7-7-7-(7)-0-0-0-0----|
|-3-3-x--9--9--9--9/5-5-5-5\7-7-7-|-7-7-7-7-7-7-(7)-0-0-0-0----|
|-5-5-x---------------------------|-7-7-7-7-7-7-(7)-0-0-0-0----|


Then you play the verse again, then play the regular chorus once
then this Chorus.
|---------------------------------|----------------------------|
|---------------------------------|----------------------------|
|-------11-11-11-11/7-7-7-7\9-9-9-|----------------------------|
|-2-2-x---------------------------|-7-7-7-7-7-7-(7)-7-7-7-7----|
|-2-2-x--9--9--9--9/5-5-5-5\7-7-7-|-5-5-5-5-5-5-(5)-0-0-0-0----|
|-2-2-x---------------------------|-5-5-5-5-5-5-(5)-0-0-0-0----|


|---------------------------------|----------------------------|
|---------------------------------|----------------------------|
|-------11-11-11-11/7-7-7-7\9-9-9-|----------------------------|
|-5-5-x---------------------------|-7-7-7-7-7-7-(7)-7-7-7-7----|
|-3-3-x--9--9--9--9/5-5-5-5\7-7-7-|-7-7-7-7-7-7-(7)-7-7-7-7----|
|-5-5-x---------------------------|-7-7-7-7-7-7-(7)-7-7-7-7----|

Intro to bridge
|--------------------------------|
|--------------------------------|
|--------------------------------|
|-7-7-7-7-7-7-(7)-0-0-x-x-x-x----|
|-7-7-7-7-7-7-(7)-0-0-x-x-x-x----|
|-7-7-7-7-7-7-(7)-0-0-x-x-x-x----|

Bridge
|----------------------|
|----------------------|
|----------------------|
|-0-2-1-0-3-2-1-0-6----|
|-0-2-1-0-3-2-1-0-6----|
|-0-2-1-0-3-2-1-0-6----|

Then play the regular Chorus one more time, then this chorus
|---------------------------------|----------------------------|
|---------------------------------|----------------------------|
|-------11-11-11-11/7-7-7-7\9-9-9-|----------------------------|
|-2-2-x---------------------------|-7-7-7-7-7-7-(7)-7-7-7-7----|
|-2-2-x--9--9--9--9/5-5-5-5\7-7-7-|-5-5-5-5-5-5-(5)-0-0-0-0----|
|-2-2-x---------------------------|-5-5-5-5-5-5-(5)-0-0-0-0----|


|---------------------------------|
|---------------------------------|
|-------11-11-11-11/7-7-7-7\9-9-9-|
|-5-5-x---------------------------|
|-3-3-x--9--9--9--9/5-5-5-5\7-7-7-|
|-5-5-x---------------------------|

Outro
|---------------------|----------------------------|
|---------------------|----------------------------|
|---------------------|----------------------------|
|-7-7-7-7-7-7-7-7-7-7-|-7-7-7-7-7-(7)-0-0-x-x-0----|
|-7-7-7-7-7-7-7-7-7-7-|-7-7-7-7-7-(7)-0-0-x-x-0----|
|-7-7-7-7-7-7-7-7-7-7-|-7-7-7-7-7-(7)-0-0-x-x-0----|

===========================================================================

5. Hit the Floor

   Slow Rock - Q=69
 
4/4

Intro and Verse 
(I kind of play it with the slightest P.M. to get the sound of the filter effect)

|---------------------|
|---------------------|
|---------------------|
|---------------------| Play 3 times
|---------------------|
|--0-4-0-1-1-1-0------|


|------------------------------|
|------------------------------|
|------------------------------|
|-----------------0-8-8-8-7----| Play 1 time
|-----------------0-8-8-8-7----|
|--0-4-0-1-1-1-0--0-8-8-8-7----|

Intro pt. 2 and Chorus
|------------------------------|
|------------------------------|
|------------------------------|
|--0-4-0-1-1-1-0--0-8-8-8-7----| Play 3 times
|--0-4-0-1-1-1-0--0-8-8-8-7----|
|--0-4-0-1-1-1-0--0-8-8-8-7----|

End of Chorus
|---------------------|
|---------------------|
|---------------------|
|--0-4-0-1-1-1-0------| Play 1 time
|--0-4-0-1-1-1-0------|
|--0-4-0-1-1-1-0------|

Bridge
|-------------------|
|-------------------|
|-------------------|
|--0--0--0--0--5----|
|--0--0--0--0--3----|
|--0--0--0--0--3----|

|-------------------|
|-------------------|
|-------------------|
|--0--0--0--0--3----|
|--0--0--0--0--1----|
|--0--0--0--0--1----|


Outro  [For these A5's I kinda play them choppy like in the song]
|------------------------------|
|------------------------------|
|------------------------------|
|--0-4-0-1-1-1-0--0-[8-8-8]-7--| Play 1 time
|--0-4-0-1-1-1-0--0-[8-8-8]-7--|
|--0-4-0-1-1-1-0--0-[8-8-8]-7--|


|---------------------|
|---------------------|
|---------------------|
|--0-4-0-1-1-1-0------| Play 1 time
|--0-4-0-1-1-1-0------|
|--0-4-0-1-1-1-0------|

===========================================================================

6. Easier to Run

Tuning (C# G# C# F# A# D#)

Slow Rock - Q=50
 4/4

 Gtr I (Clean) Intro & Verse
|---------|-----------------------------------|-----------------------------|
|----<12>-|-<12>------------------------------|------<12>-(<12>)------------|
|---------|------<12>-(<12>)-<12>-(<12>)-<12>-|-----------------------------|
|---------|-----------------------------------|-<12>-------------<7>-(<7>)--|
|---------|-----------------------------------|-----------------------------|
|---------|-----------------------------------|-----------------------------|
|
| Gtr II (Clean)
|---------|-----------------------------------|---2------------------------|
|---------|---0-------------------------------|--------0----(0)------------|
|---------|--------0----(0)-------------------|-------------------2---(2)--|
|---------|--------------------2----(2)-------|----------------------------|
|---------|-----------------------------------|----------------------------|
|---------|-----------------------------------|----------------------------|


  Gtr I (Distortion) Chorus
|---------------|---------------|---------------|--------------------|
|---------------|---------------|---------------|--------------------|
|---------------|---------------|---------------|--------------------|
|-2-2-(2)-2-(2)-|-5-5-(5)-5-(5)-|-7-7-(7)-7-(7)-|--4--4--(4)--4--(4)-|
|-2-2-(2)-2-(2)-|-3-3-(3)-3-(3)-|-5-5-(5)-5-(5)-|--2--2--(2)--2--(2)-|
|-2-2-(2)-2-(2)-|-5-5-(5)-5-(5)-|-7-7-(7)-7-(7)-|--4--4--(4)--4--(4)-|
|
| Gtr II (Distortion)
|---------------|---------------|---------------|--------------------|
|---------------|---------------|---------------|--------------------|
|-9-9-(9)-9-(9)-|-9-9-(9)-9-(9)-|-9-9-(9)-9-(9)-|-11-11-(11)-11-(11)-|
|---------------|---------------|---------------|--------------------|
|-7-7-(7)-7-(7)-|-7-7-(7)-7-(7)-|-7-7-(7)-7-(7)-|--9--9--(9)--9--(9)-|
|---------------|---------------|---------------|--------------------|


  Gtr II (Played at the end of the chorus)
|------|
|------|
|-9----|
|------|
|-7----|
|------|


  Gtr I (Distortion) Bridge
|---------------|---------------|---------------|
|---------------|---------------|---------------|
|---------------|---------------|---------------|
|-3-3-(3)-3-(3)-|-7-7-(7)-7-(7)-|-2-2-(2)-2-(2)-|
|-5-5-(5)-5-(5)-|-5-5-(5)-5-(5)-|-2-2-(2)-2-(2)-|
|-3-3-(3)-3-(3)-|-7-7-(7)-7-(7)-|-2-2-(2)-2-(2)-|
|
| Gtr II (Distortion)
|---------------|---------------|---------------|
|---------------|---------------|---------------|
|-9-9-(9)-9-(9)-|-9-9-(9)-9-(9)-|-9-9-(9)-9-(9)-|
|---------------|---------------|---------------|
|-7-7-(7)-7-(7)-|-7-7-(7)-7-(7)-|-7-7-(7)-7-(7)-|
|---------------|---------------|---------------|

  Gtr I (Distortion) Bridge Continued
|---------------|---------------|---------------|
|---------------|---------------|---------------|
|---------------|---------------|---------------|
|-4-4-(4)-4-(4)-|-5-5-(5)-5-(5)-|-7-7-(7)-7-(7)-|
|-2-2-(2)-2-(2)-|-3-3-(3)-3-(3)-|-5-5-(5)-5-(5)-|
|-4-4-(4)-4-(4)-|-5-5-(5)-5-(5)-|-7-7-(7)-7-(7)-|
|
| Gtr II (Distortion)
|---------------|---------------|---------------|
|---------------|---------------|---------------|
|-7-7-(7)-7-(7)-|-9-9-(9)-9-(9)-|-9-9-(9)-9-(9)-|
|---------------|---------------|---------------|
|-5-5-(5)-5-(5)-|-7-7-(7)-7-(7)-|-7-7-(7)-7-(7)-|
|---------------|---------------|---------------|

  Gtr I (Distortion) Play Chorus again, this is the Outro
|--------------------|--------------------|--------|
|--------------------|--------------------|--------|
|--------------------|--------------------|--------|
|--4--4--(4)--4--(4)-|--4--4--(4)--4--(4)-|--------|
|--2--2--(2)--2--(2)-|--2--2--(2)--2--(2)-|--------|
|--4--4--(4)--4--(4)-|--4--4--(4)--4--(4)-|--------|
|
| Gtr II (Distortion) 
|--------------------|--------------------|--------|
|--------------------|--------------------|-<7>----|
|-11-11-(11)-11-(11)-|-11-11-(11)-11-(11)-|-<7>----|
|--------------------|--------------------|--------|
|--9--9--(9)--9--(9)-|--9--9--(9)--9--(9)-|--------|
|--------------------|--------------------|--------|

===========================================================================

7. Faint

Tuning: Drop D down 1/2 step

Q=130 (Fast Rock)

The intro is sampling.

INTRO
   Guitar 1 (Distortion)
     <Volume swell from piano to fortissimo
D#|-----------------------------------------|------------------------|
A#|-----------------------------------------|------------------------|
F#|-----------------------------------------|---7-7-7-7--------------|
C#|--0--------------------------------------|------------------------|
G#|--0--------------------------------------|---5-5-5-5--------------|
C#|--0--------------------------------------|------------------------|

INTRO CONT.
   Guitar 1 (2 times)
D#|-----------------|---------------------|
A#|-----------------|---------------------|
F#|7-7-7-14-14-12-12|-12-12-12-14-14-10-10| They actually use an
C#|x-x-x-xx-xx-xx-xx|-xx-xx-xx-xx-xx-xx-xx| effect here and there's
G#|5-5-5-12-12-10-10|-10-10-10-12-12-8--8-| not as much strumming, but 
C#|-----------------|---------------------| if you don't have a pedal, 
  |                                         Play this.
  |Guitar 2 (Distortion)(1 time)
D#|---------------|---------------|---------------|------------------|
A#|---------------|---------------|---------------|------------------|
F#|---------------|---------------|---------------|------------------|
C#|-7-7-7-7-7-7-7-|-3-3-3-3-3-3-3-|-8-8-8-8-8-8-8-|-5-5-5-7-7-3-3----|
G#|-7-7-7-7-7-7-7-|-3-3-3-3-3-3-3-|-8-8-8-8-8-8-8-|-5-5-5-7-7-3-3----|
C#|-7-7-7-7-7-7-7-|-3-3-3-3-3-3-3-|-8-8-8-8-8-8-8-|-5-5-5-7-7-3-3----|

INTRO CONT.
   Guitar 1 (2 times)
D#|-----------------|---------------------|
A#|-----------------|---------------------|
F#|7-7-7-14-14-12-12|-12-12-12-14-14-10-10|
C#|x-x-x-xx-xx-xx-xx|-xx-xx-xx-xx-xx-xx-xx| 
G#|5-5-5-12-12-10-10|-10-10-10-12-12-8--8-|
C#|-----------------|---------------------|
  |Guitar 2 (1 time)
D#|---------------|---------------|---------------|------------------|
A#|---------------|---------------|---------------|------------------|
F#|---------------|---------------|---------------|------------------|
C#|-0-0-0-0-0-0-0-|-3-3-3-3-3-3-3-|-8-8-8-8-8-8-8-|-5-5-5-7-7-3-3----|
G#|-0-0-0-0-0-0-0-|-3-3-3-3-3-3-3-|-8-8-8-8-8-8-8-|-5-5-5-7-7-3-3----|
C#|-0-0-0-0-0-0-0-|-3-3-3-3-3-3-3-|-8-8-8-8-8-8-8-|-5-5-5-7-7-3-3----|

VERSE PT.1
   Guitar 1 (Turn Off Distortion)
D#|------|-------|-------|-------------------------------------------|
A#|------|-------|-------|-------------------------------------------|
F#|------|-------|-3-----|-------------Play Twice--------------------|
C#|------|-3-----|-------|-------------------------------------------|
G#|-5----|-------|-------|-3-----------------------------------------|
C#|------|-------|-------|-------------------------------------------|
  |Guitar 2 
D#|------|-------|-------|-------------------------------------------|
A#|------|-------|-------|-------------------------------------------|
F#|------|-whole-|-whole-|-whole------Play Twice---------------------|
C#|-0-0--|-rest--|-rest--|-rest--------------------------------------|
G#|-0-0--|-------|-------|-------------------------------------------|
C#|-0-0--|-------|-------|-------------------------------------------|

VERSE PT. 2

   Guitar 1 (Distortion)
D#|---------------|--------------------------------------------------|
A#|---------------|--------------------------------------------------|
F#|--Whole Rests--|-7-7-7-7-----------Play Once----------------------|
C#|---------------|--------------------------------------------------|
G#|---------------|-5-5-5-5------------------------------------------|
C#|---------------|--------------------------------------------------|
  |Guitar 2 
D#|------|--------|--------------------------------------------------|
A#|------|--------|--------------------------------------------------|
F#|------|--------|-------------------Play Once----------------------|
C#|-8-8--|--5-5---|--------------------------------------------------|
G#|-8-8--|--3-3---|--------------------------------------------------|
C#|-8-8--|--5-5---|--------------------------------------------------|

CHORUS PT. 1
  Guitar 1 (4 times)
D#|-----------------|---------------------|
A#|-----------------|---------------------|
F#|7-7-7-14-14-12-12|-12-12-12-14-14-10-10|
C#|x-x-x-xx-xx-xx-xx|-xx-xx-xx-xx-xx-xx-xx| 
G#|5-5-5-12-12-10-10|-10-10-10-12-12-8--8-|
C#|-----------------|---------------------|
  |Guitar 2 (2 times)
D#|---------------|---------------|---------------|------------------|
A#|---------------|---------------|---------------|------------------|
F#|---------------|---------------|---------------|------------------|
C#|-0-0-0-0-0-0-0-|-3-3-3-3-3-3-3-|-8-8-8-8-8-8-8-|-5-5-5-7-7-3-3----|
G#|-0-0-0-0-0-0-0-|-3-3-3-3-3-3-3-|-8-8-8-8-8-8-8-|-5-5-5-7-7-3-3----|
C#|-0-0-0-0-0-0-0-|-3-3-3-3-3-3-3-|-8-8-8-8-8-8-8-|-5-5-5-7-7-3-3----|

CHORUS PT. 2
   Guitar 1 (1 time)
D#|------------------------------------------------------------------|
A#|------------------------------------------------------------------|
F#|-10-10-10-10-10-10-10-10------------------------------------------|
C#|-xx-xx-xx-xx-xx-xx-xx-xx------------------------------------------|
G#|-8--8--8--8--8--8--8--8-------------------------------------------|
C#|------------------------------------------------------------------|
  |Guitar 2 (1 time)
D#|------------------------------------------------------------------|
A#|------------------------------------------------------------------|
F#|------------------------------------------------------------------|
C#|-3-3-3-3-3-3-3-3--------------------------------------------------|
G#|-3-3-3-3-3-3-3-3--------------------------------------------------|
C#|-3-3-3-3-3-3-3-3--------------------------------------------------|

THEN PLAY VERSE PT. 1 AGAIN BOTH TIMES AS USUAL, BUT AT VERSE PT. 2, 
WAIT A LITTLE LONGER BEFORE PLAYING THE OCTAVE CHORDS, IF YOU LISTEN, 
YOU'LL SEE WHAT I MEAN. PLAY THE CHORUS PARTS AGAIN AS USUAL.

BRIDGE
   Guitar 1 ONLY with Heavy Distortion               <Swell, P to F
D#|---------------|-------------|------------------|-----------------|
A#|---------------|-------------|------------------|-----------------|
F#|---------------|-------------|-Play that 4 times|-<7>-(feedback)--|
C#|-0-7-3-2-3-2-0-|-0-7-3-2-3-2-|-then play this---|-----------------|
G#|-0-7-3-2-3-2-0-|-0-7-3-2-3-2-|-after the part---|-----------------|
C#|-0-7-3-2-3-2-0-|-0-7-3-2-3-2-|-where he talks---|-----------------|


THEN PLAY THE CHORUS AGAIN BUT THIS TIME PLAY IT TWICE AS MANY TIMES 
THEN THIS OUTRO PART HERE

   Guitar 1
D#|------------------------------------------------------------------|
A#|------------------------------------------------------------------|
F#|-10-10-10-10-10-8-8-8---------------------------------------------|
C#|-xx-xx-xx-xx-xx-x-x-x---------------------------------------------|
G#|-8--8--8--8--8--6-6-6---------------------------------------------|
C#|------------------------------------------------------------------|
  |Guitar 2
D#|------------------------------------------------------------------|
A#|------------------------------------------------------------------|
F#|------------------------------------------------------------------|
C#|-3-3-3-3-1-1-1-1--------------------------------------------------|
G#|-3-3-3-3-1-1-1-1--------------------------------------------------|
C#|-3-3-3-3-1-1-1-1--------------------------------------------------|

===========================================================================

8. Figure.09

      Moderate Rock Q=94
 4/4
      Gtr I
      <
|----------|-------------------------------|
|----------|-------------------------------|
|----------|-------------------------------|
|-----0----|-<12>p0h3-<12>-(<12>)p0h3-<12>-|
|----------|-------------------------------|
|----------|-------------------------------|


|----------------------------------------------|----------------------------|
|----------------------------------------------|----------------------------|
|----------------------------------------------|----------------------------|
|<12>-0-3h<12>s<13>s<12>s<13>-(<13>)-<12>s<13>s|<12>p0h3-<12>-(<12>)0h3<12>-|
|----------------------------------------------|----------------------------|
|----------------------------------------------|----------------------------|


|---------------------------||--------------------------|
|---------------------------||o-------------------------|
|---------------------------||--------------------------|
|-(<12>)p0h3----------------||--------------------------|
|---------------------------||o-------------------------|
|---------------------------||--------------------------|
|
| Gtr II
|---------------------------||--------------------------|
|---------------------------||o-------------------------|
|---------------------------||--------------------------|
|-------------0h1-1-1-1-0h1-||--0-<12>-5-0-(0)-<12>-5-0-|
|-------------0h1-1-1-1-0h1-||o-0------3-0-(0)------3-0-|
|-------------0h1-1-1-1-0h1-||--0-<12>-3-0-(0)-<12>-3-0-|


|----------------------------||
|---------------------------o||
|----------------------------||
|----------------------------||
|---------------------------o||
|----------------------------||
|
|----------------------------||
|---------------------------o||
|----------------------------||
|-(0)-<12>-5--0h1-1-1-1-0h1--||
|-(0)------3--0h1-1-1-1-0h1-o||
|-(0)-<12>-3--0h1-1-1-1-0h1--||


    Gtr II
||------------------------|---------------------------||
||o-----------------------|--------------------------o||
||------------------------|---------------------------||
||--0-<12>--0-(0)-<12>--0-|-(0)-<12>---0h1-1-1-1-0h1--||
||o-0-------0-(0)-------0-|-(0)--------0h1-1-1-1-0h1-o||
||--0-<12>--0-(0)-<12>--0-|-(0)-<12>---0h1-1-1-1-0h1--||


  Gtr II
|-------------------------|----------------------------||
|-------------------------|---------------------------o||
|-------------------------|----------------------------||
|-0-<12>-5-0-(0)-<12>-5-0-|-(0)-<12>-5--0h1-1-1-1-0h1--||
|-0------3-0-(0)------3-0-|-(0)------3--0h1-1-1-1-0h1-o||
|-0-<12>-3-0-(0)-<12>-3-0-|-(0)-<12>-3--0h1-1-1-1-0h1--||


|-------------------|---------------|
|-------------------|---------------|
|-------------------|---------------|
|-0-0-8-0-(0)-0-8-0-|-(0)-0-8-0-----|
|-0-0-8-0-(0)-0-8-0-|-(0)-0-8-0-----|
|-0-0-8-0-(0)-0-8-0-|-(0)-0-8-0-----|


                                                        4x
||-------------------------|----------------------------||
||o------------------------|---------------------------o||
||-------------------------|----------------------------||
||--0-0-0-0-0-8-8-8-8-10-0-|-3-3-3-3--5-5-5-5-7-7-7-7---||
||o-0-0-0-0-0-8-8-8-8--8-0-|-3-3-3-3--5-5-5-5-7-7-7-7--o||
||--0-0-0-0-0-8-8-8-8--8-0-|-3-3-3-3--5-5-5-5-7-7-7-7---||


  Gtr II
|-------------------------|----------------------------||
|-------------------------|---------------------------o||
|-------------------------|----------------------------||
|-0-<12>-5-0-(0)-<12>-5-0-|-(0)-<12>-5--0h1-1-1-1-0h1--||
|-0------3-0-(0)------3-0-|-(0)------3--0h1-1-1-1-0h1-o||
|-0-<12>-3-0-(0)-<12>-3-0-|-(0)-<12>-3--0h1-1-1-1-0h1--||


    Gtr II
||------------------------|---------------------------||
||o-----------------------|--------------------------o||
||------------------------|---------------------------||
||--0-<12>--0-(0)-<12>--0-|-(0)-<12>---0h1-1-1-1-0h1--||
||o-0-------0-(0)-------0-|-(0)--------0h1-1-1-1-0h1-o||
||--0-<12>--0-(0)-<12>--0-|-(0)-<12>---0h1-1-1-1-0h1--||


  Gtr II
|-------------------------|----------------------------||
|-------------------------|---------------------------o||
|-------------------------|----------------------------||
|-0-<12>-5-0-(0)-<12>-5-0-|-(0)-<12>-5--0h1-1-1-1-0h1--||
|-0------3-0-(0)------3-0-|-(0)------3--0h1-1-1-1-0h1-o||
|-0-<12>-3-0-(0)-<12>-3-0-|-(0)-<12>-3--0h1-1-1-1-0h1--||


|-------------------|---------------|
|-------------------|---------------|
|-------------------|---------------|
|-0-0-8-0-(0)-0-8-0-|-(0)-0-8-0-----|
|-0-0-8-0-(0)-0-8-0-|-(0)-0-8-0-----|
|-0-0-8-0-(0)-0-8-0-|-(0)-0-8-0-----|


||-------------------------|
||o------------------------|
||-------------------------|
||--0-0-0-0-0-8-8-8-8-10-0-|
||o-0-0-0-0-0-8-8-8-8--8-0-|
||--0-0-0-0-0-8-8-8-8--8-0-|


                            4x
|---------------------------||-----------------------|
|--------------------------o||-----------------------|
|---------------------------||-----------------------|
|-3-3-3-3--5-5-5-5-7-7-7-7--||-1--1-1-1-1-1--1-1-1-1-|
|-3-3-3-3--5-5-5-5-7-7-7-7-o||-1--1-1-1-1-1--1-1-1-1-|
|-3-3-3-3--5-5-5-5-7-7-7-7--||-1--1-1-1-1-1--1-1-1-1-|


|-------------------------------|--------------------------------------------------|
|-------------------------------|--------------------------------------------------|
|-------------------------------|--------------------------------------------------|
|-<12>p0h3-<12>-(<12>)p0h3-<12>-|-(<12>)-0-3h=<12>s<13>s<12>s<13>-(<13>)-<12>s<13>s|
|-------------------------------|--------------------------------------------------|
|-------------------------------|--------------------------------------------------|


|----------------------------------|
|----------------------------------|
|----------------------------------|
|-<12>p0h3-<12>-(<12>)p0h3-<12>----|
|----------------------------------|
|----------------------------------|


|-------------------------||------------------------|-----------------------|
|-------------------------||o-----------------------|-----------------------|
|-------------------------||------------------------|-----------------------|
|-<12>p0h3-0h1-1-1-1-0h1--||--1-0-x-x-x-0-1-3--<16>-|-1-0-x-x-x-0-1-3--<12>-|
|----------0h1-1-1-1-0h1--||o-1-0-x-x-x-0-1-3-------|-1-0-x-x-x-0-1-3-------|
|----------0h1-1-1-1-0h1--||--1-0-x-x-x-0-1-3--<16>-|-1-0-x-x-x-0-1-3--<12>-|


|-----------------------|-----------------------------||
|-----------------------|----------------------------o||
|-----------------------|-----------------------------||
|-1-0-x-x-x-0-1-3--<16>-|-1-0-x-x-x-0-1-3-0-x-x-x-----||
|-1-0-x-x-x-0-1-3-------|-1-0-x-x-x-0-1-3-0-x-x-x----o||
|-1-0-x-x-x-0-1-3--<16>-|-1-0-x-x-x-0-1-3-0-x-x-x-----||


                                                        9x
||-------------------------|----------------------------||
||o------------------------|---------------------------o||
||-------------------------|----------------------------||
||--0-0-0-0-0-8-8-8-8-10-0-|-3-3-3-3--5-5-5-5-7-7-7-7---||
||o-0-0-0-0-0-8-8-8-8--8-0-|-3-3-3-3--5-5-5-5-7-7-7-7--o||
||--0-0-0-0-0-8-8-8-8--8-0-|-3-3-3-3--5-5-5-5-7-7-7-7---||


|------------------------------------|
|------------------------------------|
|------------------------------------|
|-1-1-1-1-1-1-1-1-1-1-1-1-1-1-1-1----|
|-1-1-1-1-1-1-1-1-1-1-1-1-1-1-1-1----|
|-1-1-1-1-1-1-1-1-1-1-1-1-1-1-1-1----|

===========================================================================

9. Breaking the Habit

    Fast Q=192
   4/4
    Gtr I
||-----6--4--3--|----6--4--3--|----6--4--3--|----6--4--3--|
||o-6-----------|-6-----------|-6-----------|-6-----------|
||--------------|-------------|-------------|-------------|
||--------------|-------------|-------------|-------------|
||o-------------|-------------|-------------|-------------|
||--------------|-------------|-------------|-------------|


|----6--4--3--|----6--4--3--|-------4--3--|----6--4--3---|
|-6-----------|-6-----------|-6--1--------|-6------------|
|-------------|-------------|-------------|--------------|
|-------------|-------------|-------------|--------------|
|-------------|-------------|-------------|--------------|
|-------------|-------------|-------------|--------------|


                                                                           8x
||-----6----4----3--|----6----4----3--|----6----4----3--|----6----4----3---||
||o-6---------------|-6---------------|-6---------------|-6---------------o||
||------------------|-----------------|-----------------|------------------||
||------------------|-----------------|-----------------|------------------||
||o-----------------|-----------------|-----------------|-----------------o||
||------------------|-----------------|-----------------|------------------||
|
|   Gtr II
|                                                                          8x
||------------------|-----------------|-----------------|------------------||
||o-----------------|-----------------|-----------------|-----------------o||
||--5--6-8-(8)-5-5--|-5----6-(6)-5-5--|-5--6-8-(8)-5-5--|-5----6-(6)-5-5---||
||------------------|-----------------|-----------------|------------------||
||o-----------------|-----------------|-----------------|-----------------o||
||------------------|-----------------|-----------------|------------------||


                                                                   5x
||-----6---4---3--|----6---4---3--|----6---4---3--|----6---4---3---||
||o-6-------------|-6-------------|-6-------------|-6-------------o||
||----------------|---------------|---------------|----------------||
||----------------|---------------|---------------|----------------||
||o---------------|---------------|---------------|---------------o||
||----------------|---------------|---------------|----------------||
|
|                                                                  5x
||----------------|---------------|---------------|----------------||
||o------4---4-6--|------4---4-6--|------4---4-6--|------4---4-6--o||
||----------------|---------------|---------------|----------------||
||--3-------------|-3--3----------|-3--3----------|-3--3-----------||
||o---------------|---------------|---------------|---------------o||
||----------------|---------------|---------------|----------------||


|-----------------|----------------|-----------------|-----------------|
|-----------------|----------------|-----------------|-----------------|
|-5--6-8-(8)-5-5--|-5---6-(6)-5-5--|-5--6-8-(8)-5-5--|-5---6-(6)-5-5---|
|-----------------|----------------|-----------------|-----------------|
|-----------------|----------------|-----------------|-----------------|
|-----------------|----------------|-----------------|-----------------|


                                                                           8x
||-----6----4----3--|----6----4----3--|----6----4----3--|----6----4----3---||
||o-6---------------|-6---------------|-6---------------|-6---------------o||
||------------------|-----------------|-----------------|------------------||
||------------------|-----------------|-----------------|------------------||
||o-----------------|-----------------|-----------------|-----------------o||
||------------------|-----------------|-----------------|------------------||
|
|   Gtr II
|                                                                          8x
||------------------|-----------------|-----------------|------------------||
||o-----------------|-----------------|-----------------|-----------------o||
||--5--6-8-(8)-5-5--|-5----6-(6)-5-5--|-5--6-8-(8)-5-5--|-5----6-(6)-5-5---||
||------------------|-----------------|-----------------|------------------||
||o-----------------|-----------------|-----------------|-----------------o||
||------------------|-----------------|-----------------|------------------||


                                                                   5x
||-----6---4---3--|----6---4---3--|----6---4---3--|----6---4---3---||
||o-6-------------|-6-------------|-6-------------|-6-------------o||
||----------------|---------------|---------------|----------------||
||----------------|---------------|---------------|----------------||
||o---------------|---------------|---------------|---------------o||
||----------------|---------------|---------------|----------------||
|
|                                                                  5x
||----------------|---------------|---------------|----------------||
||o------4---4-6--|------4---4-6--|------4---4-6--|------4---4-6--o||
||----------------|---------------|---------------|----------------||
||--3-------------|-3--3----------|-3--3----------|-3--3-----------||
||o---------------|---------------|---------------|---------------o||
||----------------|---------------|---------------|----------------||


||-----6--4--3--|------6--4--3--|----6--4--3--|------6--4--3--|
||o-6-----------|--6------------|-6-----------|--6------------|
||--------------|---------------|-------------|---------------|
||--------------|---------------|-------------|---------------|
||o-------------|---------------|-------------|---------------|
||--------------|---------------|-------------|---------------|
|
||--------------|---------------|-------------|---------------|
||o-------------|---------------|-------------|---------------|
||--------------|---------------|-------------|---------------|
||--3-----------|-(3)-----------|-5-----------|-(5)-----------|
||o-3-----------|-(3)-----------|-5-----------|-(5)-----------|
||--3-----------|-(3)-----------|-5-----------|-(5)-----------|


|----6--4--3--|------6--4--3--|----6--4--3--|------6--4--3----||
|-6-----------|--6------------|-6-----------|--6-------------o||
|-------------|---------------|-------------|-----------------||
|-------------|---------------|-------------|-----------------||
|-------------|---------------|-------------|----------------o||
|-------------|---------------|-------------|-----------------||
|
|-------------|---------------|-------------|-----------------||
|-------------|---------------|-------------|----------------o||
|-------------|---------------|-------------|-----------------||
|-6-----------|-(6)-----------|-8-----------|-(8)-------------||
|-6-----------|-(6)-----------|-8-----------|-(8)------------o||
|-6-----------|-(6)-----------|-8-----------|-(8)-------------||


                                                                   5x
||-----6---4---3--|----6---4---3--|----6---4---3--|----6---4---3---||
||o-6-------------|-6-------------|-6-------------|-6-------------o||
||----------------|---------------|---------------|----------------||
||----------------|---------------|---------------|----------------||
||o---------------|---------------|---------------|---------------o||
||----------------|---------------|---------------|----------------||
|
|                                                                  5x
||----------------|---------------|---------------|----------------||
||o------4---4-6--|------4---4-6--|------4---4-6--|------4---4-6--o||
||----------------|---------------|---------------|----------------||
||--3-------------|-3--3----------|-3--3----------|-3--3-----------||
||o---------------|---------------|---------------|---------------o||
||----------------|---------------|---------------|----------------||


                              11x
|-8--6--4--3--||-----6--4--3---||
|-------------||o-6-----------o||
|-------------||---------------||
|-------------||---------------||
|-------------||o-------------o||
|-------------||---------------||

===========================================================================

10. From the Inside
  Q.=58
 6/8
  Gtr II
|--5----5---3---|-5---5---3---|-5---5---3---|-5---5---3---|
|-----3---3---3-|---3---3---3-|---3---3---3-|---3---3---3-|
|---------------|-------------|-------------|-------------|
|---------------|-------------|-------------|-------------|
|---------------|-------------|-------------|-------------|
|---------------|-------------|-------------|-------------|
|
| Gtr I
|---------------|-------------|-------------|-------------|
|---------------|-------------|-------------|-------------|
|-<3>-----------|-------------|-------------|-------------|
|--0------------|-------------|-------------|-------------|
|--0------------|-------------|-------------|-------------|
|--0------------|-------------|-------------|-------------|



    Gtr II
||--5-------5-------3-------|-5-------5-------3-------|
||o-----3-------3-------3---|-----3-------3-------3---|
||--------------------------|-------------------------|
||--------------------------|-------------------------|
||o-------------------------|-------------------------|
||--------------------------|-------------------------|
|
|   Gtr I
||--------------------------|-------------------------|
||o-------------------------|-------------------------|
||--------------------------|-------------------------|
||--0-0---0---0-0-0---0---0-|-3-3---3---3-3-3---3---3-|
||o-0-0---0---0-0-0---0---0-|-3-3---3---3-3-3---3---3-|
||--0-0---0---0-0-0---0---0-|-3-3---3---3-3-3---3---3-|


|-5-------5-------3-------|-5-------5-------3--------||
|-----3-------3-------3---|-----3-------3-------3---o||
|-------------------------|--------------------------||
|-------------------------|--------------------------||
|-------------------------|-------------------------o||
|-------------------------|--------------------------||
|
|-------------------------|--------------------------||
|-------------------------|-------------------------o||
|-------------------------|--------------------------||
|-8-8---8---8-8-8---8---8-|-5-5---5---5-7-7---7---7--||
|-8-8---8---8-8-8---8---8-|-5-5---5---5-7-7---7---7-o||
|-8-8---8---8-8-8---8---8-|-5-5---5---5-7-7---7---7--||

Gtr III
|-17----17----17----|-15----15----12----|
|----15----15----15-|----15----15----15-|
|-------------------|-------------------|
|-------------------|-------------------|
|-------------------|-------------------|
|-------------------|-------------------|


|-17----17----17----|-12----12----13------|
|----15----15----15-|----15----15----15---|
|-------------------|---------------------|
|-------------------|---------------------|
|-------------------|---------------------|
|-------------------|---------------------|


|-17----17----17----|-15----15----12----|
|----15----15----15-|----15----15----15-|
|-------------------|-------------------|
|-------------------|-------------------|
|-------------------|-------------------|
|-------------------|-------------------|


|-17----17----17----|-12----12----13----|
|----15----15----15-|----15----15----15-|
|-------------------|-------------------|
|-------------------|-------------------|
|-------------------|-------------------|
|-------------------|-------------------|


|-5---5---5---|-3---3---0---|-5---5---5---|
|---3---3---3-|---3---3---3-|---3---3---3-|
|-------------|-------------|-------------|
|-------------|-------------|-------------|
|-------------|-------------|-------------|
|-------------|-------------|-------------|


|-0---0---1---|-5---5---5---|-3---3---0---|
|---3---3---3-|---3---3---3-|---3---3---3-|
|-------------|-------------|-------------|
|-------------|-------------|-------------|
|-------------|-------------|-------------|
|-------------|-------------|-------------|

|-5---5---5---|-5---5---5-------|
|---3---3---3-|---3---3-----3---|
|-------------|-----------------|
|-------------|-----------------|
|-------------|-----------------|
|-------------|-----------------|
|
| Gtr I
|                       PM----|
|-------------|-----------------|
|-------------|-----------------|
|-------------|---------0-0-0-0-|
|-------------|---------0-0-0-0-|
|-------------|---------0-0-0-0-|
|-------------|-----------------|

    Gtr II
||------------------|-----------------|-----------------|------------------||
||o-----------------|-----------------|-----------------|-----------------o||
||------------------|-----------------|-----------------|------------------||
||--0-0-0-0-0-0-0-0-|-3-3-3-3-3-3-3-3-|-8-8-8-8-8-8-8-8-|-5-5-5-5-7-7-7-7--||
||o-0-0-0-0-0-0-0-0-|-3-3-3-3-3-3-3-3-|-8-8-8-8-8-8-8-8-|-5-5-5-5-7-7-7-7-o||
||--0-0-0-0-0-0-0-0-|-3-3-3-3-3-3-3-3-|-8-8-8-8-8-8-8-8-|-5-5-5-5-7-7-7-7--||
|
|   Gtr I
||------------------|-----------------|-----------------|------------------||
||o-----------------|-----------------|-----------------|-----------------o||
||------------------|-----------------|-----------------|------------------||
||--0-0-0-0-0-0-0-0-|-3-3-3-3-3-3-3-3-|-8-8-8-8-8-8-8-8-|-5-5-5-5-7-7-7-7--||
||o-0-0-0-0-0-0-0-0-|-3-3-3-3-3-3-3-3-|-8-8-8-8-8-8-8-8-|-5-5-5-5-7-7-7-7-o||
||--0-0-0-0-0-0-0-0-|-3-3-3-3-3-3-3-3-|-8-8-8-8-8-8-8-8-|-5-5-5-5-7-7-7-7--||

    Gtr II
||--------------------------|-------------------------|
||o-------------------------|-------------------------|
||--------------------------|-------------------------|
||--0-0---0---0-0-0---0---0-|-3-3---3---3-3-3---3---3-|
||o-0-0---0---0-0-0---0---0-|-3-3---3---3-3-3---3---3-|
||--0-0---0---0-0-0---0---0-|-3-3---3---3-3-3---3---3-|
|
|   Gtr I
||--5-------5-------3-------|-5-------5-------3-------|
||o-----3-------3-------3---|-----3-------3-------3---|
||--------------------------|-------------------------|
||--------------------------|-------------------------|
||o-------------------------|-------------------------|
||--------------------------|-------------------------|


|-------------------------|----------------------------||
|-------------------------|---------------------------o||
|-------------------------|----------------------------||
|-8-8---8---8-8-8---8---8-|-5-5---5---5-7-7---7---7----||
|-8-8---8---8-8-8---8---8-|-5-5---5---5-7-7---7---7---o||
|-8-8---8---8-8-8---8---8-|-5-5---5---5-7-7---7---7----||
|
|-5-------5-------3-------|-5-------5-------3----------||
|-----3-------3-------3---|-----3-------3-------3-----o||
|-------------------------|----------------------------||
|-------------------------|----------------------------||
|-------------------------|---------------------------o||
|-------------------------|----------------------------||

 Gtr III
|-17----17----17----|-15----15----12----|
|----15----15----15-|----15----15----15-|
|-------------------|-------------------|
|-------------------|-------------------|
|-------------------|-------------------|
|-------------------|-------------------|


|-17----17----17----|-12----12----13------|
|----15----15----15-|----15----15----15---|
|-------------------|---------------------|
|-------------------|---------------------|
|-------------------|---------------------|
|-------------------|---------------------|

|-5---5---5---|-3---3---0---|-5---5---5---|
|---3---3---3-|---3---3---3-|---3---3---3-|
|-------------|-------------|-------------|
|-------------|-------------|-------------|
|-------------|-------------|-------------|
|-------------|-------------|-------------|


|-0---0---1---|-5---5---5---|-3---3---0---|
|---3---3---3-|---3---3---3-|---3---3---3-|
|-------------|-------------|-------------|
|-------------|-------------|-------------|
|-------------|-------------|-------------|
|-------------|-------------|-------------|

|-5---5---5---|-5---5---5-------|
|---3---3---3-|---3---3-----3---|
|-------------|-----------------|
|-------------|-----------------|
|-------------|-----------------|
|-------------|-----------------|
|
| Gtr I
|                       PM----|
|-------------|-----------------|
|-------------|-----------------|
|-------------|---------0-0-0-0-|
|-------------|---------0-0-0-0-|
|-------------|---------0-0-0-0-|
|-------------|-----------------|

   Gtr II
||------------------|-----------------|-----------------|-------------------||
||o-----------------|-----------------|-----------------|------------------o||
||------------------|-----------------|-----------------|-------------------||
||--0-0-0-0-0-0-0-0-|-3-3-3-3-3-3-3-3-|-8-8-8-8-8-8-8-8-|-5-5-5-5-7-7-7-7---||
||o-0-0-0-0-0-0-0-0-|-3-3-3-3-3-3-3-3-|-8-8-8-8-8-8-8-8-|-5-5-5-5-7-7-7-7--o||
||--0-0-0-0-0-0-0-0-|-3-3-3-3-3-3-3-3-|-8-8-8-8-8-8-8-8-|-5-5-5-5-7-7-7-7---||
|
|   Gtr I
||------------------|-----------------|-----------------|-------------------||
||o-----------------|-----------------|-----------------|------------------o||
||------------------|-----------------|-----------------|-------------------||
||--0-0-0-0-0-0-0-0-|-3-3-3-3-3-3-3-3-|-8-8-8-8-8-8-8-8-|-5-5-5-5-7-7-7-7---||
||o-0-0-0-0-0-0-0-0-|-3-3-3-3-3-3-3-3-|-8-8-8-8-8-8-8-8-|-5-5-5-5-7-7-7-7--o||
||--0-0-0-0-0-0-0-0-|-3-3-3-3-3-3-3-3-|-8-8-8-8-8-8-8-8-|-5-5-5-5-7-7-7-7---||

  Gtr II
|-------------------------|-------------------------|
|-------------------------|-------------------------|
|-------------------------|-------------------------|
|-0-0---0---0-0-0---0---0-|-3-3---3---3-3-3---3---3-|
|-0-0---0---0-0-0---0---0-|-3-3---3---3-3-3---3---3-|
|-0-0---0---0-0-0---0---0-|-3-3---3---3-3-3---3---3-|
|
| Gtr I
|-5-------5-------3-------|-5-------5-------3-------|
|-----3-------3-------3---|-----3-------3-------3---|
|-------------------------|-------------------------|
|-------------------------|-------------------------|
|-------------------------|-------------------------|
|-------------------------|-------------------------|

|-------------------------|----------------------------|
|-------------------------|----------------------------|
|-------------------------|----------------------------|
|-8-8---8---8-8-8---8---8-|-7-7---7---7-7-7---7---7----|
|-8-8---8---8-8-8---8---8-|-7-7---7---7-7-7---7---7----|
|-8-8---8---8-8-8---8---8-|-7-7---7---7-7-7---7---7----|
|
|-5-------5-------3-------|-5-------5-------3----------|
|-----3-------3-------3---|-----3-------3-------3------|
|-------------------------|----------------------------|
|-------------------------|----------------------------|
|-------------------------|----------------------------|
|-------------------------|----------------------------|

|-------------------|-------------------|-------------------|---------------|
|-------------------|-------------------|-------------------|---------------|
|-------------------|-------------------|-------------------|---------------|
|-0-0---0---0-------|-0-0---0---0-------|-0-0---0---0-------|-1-1---1---1---|
|-0-0---0---0-------|-0-0---0---0-------|-0-0---0---0-------|-1-1---1---1---|
|-0-0---0---0-------|-0-0---0---0-------|-0-0---0---0-------|-1-1---1---1---|
|
|-5-------5-----3---|-5-------5-----3---|-5-------5-----3---|-5-------5-----|
|-----3-------3---3-|-----3-------3---3-|-----3-------3---3-|-----3---------|
|-------------------|-------------------|-------------------|---------------|
|-------------------|-------------------|-------------------|---------------|
|-------------------|-------------------|-------------------|---------------|
|-------------------|-------------------|-------------------|---------------|

|-------------------|-------------------|
|-------------------|-------------------|
|-------------9-----|-------------9-----|
|-0-0---0---0---0-1-|-0-0---0---0---0-1-|
|-0-0---0---0---0-1-|-0-0---0---0---0-1-|
|-0-0---0---0---0-1-|-0-0---0---0---0-1-|
|
|-5-------5-----3---|-5-------5-----3---|
|-----3-------3---3-|-----3-------3---3-|
|-------------------|-------------------|
|-------------------|-------------------|
|-------------------|-------------------|
|-------------------|-------------------|

|-------------------|-------------------|
|-------------------|-------------------|
|-------------9-----|-------------9-----|
|-0-0---0---0---0-1-|-0-0---0---0---0-1-|
|-0-0---0---0---0-1-|-0-0---0---0---0-1-|
|-0-0---0---0---0-1-|-0-0---0---0---0-1-|
|
|-5-------5-----3---|-5-------5-----3---|
|-----3-------3---3-|-----3-------3---3-|
|-------------------|-------------------|
|-------------------|-------------------|
|-------------------|-------------------|
|-------------------|-------------------|

|---------------------|----|
|---------------------|----|
|---------------------|----|
|-1-1--1--1-1-1--1--1-|----|
|-1-1--1--1-1-1--1--1-|----|
|-1-1--1--1-1-1--1--1-|----|


|-------------------|-------------------|
|-------------------|-------------------|
|-------------9-----|-------------9-----|
|-0-0---0---0---0-1-|-0-0---0---0---0-1-|
|-0-0---0---0---0-1-|-0-0---0---0---0-1-|
|-0-0---0---0---0-1-|-0-0---0---0---0-1-|
|
|-5-------5-----3---|-5-------5-----3---|
|-----3-------3---3-|-----3-------3---3-|
|-------------------|-------------------|
|-------------------|-------------------|
|-------------------|-------------------|
|-------------------|-------------------|

|-------------------|-------------------|
|-------------------|-------------------|
|-------------9-----|-------------9-----|
|-0-0---0---0---0-1-|-0-0---0---0---0-1-|
|-0-0---0---0---0-1-|-0-0---0---0---0-1-|
|-0-0---0---0---0-1-|-0-0---0---0---0-1-|
|
|-5-------5-----3---|-5-------5-----3---|
|-----3-------3---3-|-----3-------3---3-|
|-------------------|-------------------|
|-------------------|-------------------|
|-------------------|-------------------|
|-------------------|-------------------|

  Gtr II
|-------|-------|-----------------|-----------------|
|-------|-------|-----------------|-----------------|
|-------|-------|-----------------|-----------------|
|-------|-------|-8-8-8-8-8-8-8-8-|-5-5-5-5-7-7-7-7-|
|-------|-------|-8-8-8-8-8-8-8-8-|-5-5-5-5-7-7-7-7-|
|-------|-------|-8-8-8-8-8-8-8-8-|-5-5-5-5-7-7-7-7-|
|
| Gtr I
|-------|-------|-----------------|-----------------|
|-------|-------|-----------------|-----------------|
|-------|-------|-----------------|-----------------|
|-------|-------|-8-8-8-8-8-8-8-8-|-5-5-5-5-7-7-7-7-|
|-------|-------|-8-8-8-8-8-8-8-8-|-5-5-5-5-7-7-7-7-|
|-------|-------|-8-8-8-8-8-8-8-8-|-5-5-5-5-7-7-7-7-|

    Gtr II
||------------------|-----------------|-----------------|------------------||
||o-----------------|-----------------|-----------------|-----------------o||
||------------------|-----------------|-----------------|------------------||
||--0-0-0-0-0-0-0-0-|-3-3-3-3-3-3-3-3-|-8-8-8-8-8-8-8-8-|-5-5-5-5-7-7-7-7--||
||o-0-0-0-0-0-0-0-0-|-3-3-3-3-3-3-3-3-|-8-8-8-8-8-8-8-8-|-5-5-5-5-7-7-7-7-o||
||--0-0-0-0-0-0-0-0-|-3-3-3-3-3-3-3-3-|-8-8-8-8-8-8-8-8-|-5-5-5-5-7-7-7-7--||
|
|   Gtr I
||------------------|-----------------|-----------------|------------------||
||o-----------------|-----------------|-----------------|-----------------o||
||------------------|-----------------|-----------------|------------------||
||--0-0-0-0-0-0-0-0-|-3-3-3-3-3-3-3-3-|-8-8-8-8-8-8-8-8-|-5-5-5-5-7-7-7-7--||
||o-0-0-0-0-0-0-0-0-|-3-3-3-3-3-3-3-3-|-8-8-8-8-8-8-8-8-|-5-5-5-5-7-7-7-7-o||
||--0-0-0-0-0-0-0-0-|-3-3-3-3-3-3-3-3-|-8-8-8-8-8-8-8-8-|-5-5-5-5-7-7-7-7--||

|-------------------|-------------------|-------------------|--------------|
|-------------------|-------------------|-------------------|--------------|
|-------------------|-------------------|-------------------|--------------|
|-0-0---0---0-------|-0-0---0---0-------|-0-0---0---0-------|-0-0--0--0----|
|-0-0---0---0-------|-0-0---0---0-------|-0-0---0---0-------|-0-0--0--0----|
|-0-0---0---0-------|-0-0---0---0-------|-0-0---0---0-------|-0-0--0--0----|
|
|-5-------5-----3---|-5-------5-----3---|-5-------5-----3---|--------------|
|-----3-------3---3-|-----3-------3---3-|-----3-------3---3-|--------------|
|-------------------|-------------------|-------------------|--------------|
|-------------------|-------------------|-------------------|--------------|
|-------------------|-------------------|-------------------|--------------|
|-------------------|-------------------|-------------------|--------------|

===========================================================================

11. Nobody's Listening

  Moderately Q=98

This is the only guitar in this song, its in the chorus.

  Gtr I
|------------|-----------|------------|-----------|
|------------|-----------|------------|-----------|
|------------|-----------|------------|-----------|
|------------|-----------|------------|-----------|
|------------|-----------|------------|-----------|
|-3-3-3-3----|-4-4-4-4---|-3-3-3-3----|-1-1-4-4---|

===========================================================================

12. Session

    Moderately Q=94

This is mostly sampling, but it was transcribed so I put it arranged for
guitar.

   4/4
     Gtr I
                                                     4x
||----------|--------------|------------|---<12>-----||
||o--<7>----|-(<7>)--------|------------|-----------o||
||----------|--------------|---<5>------|------------||
||----------|--------------|------------|------------||
||o---------|--------------|------------|-----------o||
||----------|--------------|------------|------------||


    F                         Ebm           F
   4/4
      Gtr I
||-----------|--------------|-------------|----<12>-----||
||o---<7>----|-(<7>)--------|-------------|------------o||
||-----------|--------------|----<5>------|-------------||
||-----------|--------------|-------------|-------------||
||o----------|--------------|-------------|------------o||
||-----------|--------------|-------------|-------------||
|
|   Gtr II
||-----------|--------------|-------------|-------------||
||o-2--------|--(2)---------|-0-----------|-2----------o||
||--3--------|--(3)---------|-0-----------|-3-----------||
||--4--------|--(4)---------|-2-----------|-4-----------||
||o----------|--------------|-------------|------------o||
||-----------|--------------|-------------|-------------||


    F                                 Ebm             F
   4/4
          Gtr I
||----------------|-----------------|---------------|-----<12>---------||
||o-------<7>-----|-(<7>)-----------|---------------|-----------------o||
||----------------|-----------------|----<5>--------|------------------||
||----------------|-----------------|---------------|------------------||
||o---------------|-----------------|---------------|-----------------o||
||----------------|-----------------|---------------|------------------||
|
|   Gtr II
||----------------|-----------------|---------------|------------------||
||o-2-------------|--(2)------------|-3-------------|--0--------------o||
||--3-------------|--(3)------------|-4-------------|--0---------------||
||--4-------------|--(4)------------|-5-------------|--2---------------||
||o---------------|-----------------|---------------|-----------------o||
||----------------|-----------------|---------------|------------------||
|
|   Gtr III
||--6--6---6---7--|---9----9--6--6--|-7---7---7--9--|-10---10---7--7---||
||o---------------|-----------------|---------------|-----------------o||
||----------------|-----------------|---------------|------------------||
||----------------|-----------------|---------------|------------------||
||o---------------|-----------------|---------------|-----------------o||
||----------------|-----------------|---------------|------------------||


  Gtr III
|--6----------------------|-----------------------|
|-------------------------|-----------------------|
|-------------------------|-----------------------|
|-------------------------|-----------------------|
|-------------------------|-----------------------|
|-------------------------|-----------------------|
|
| Gtr IV
|----------<12>-(<12>)----|-----------------------|
|-14-14-14----------------|-14-14-14-<7>-(<7>)----|
|-------------------------|-----------------------|
|-------------------------|-----------------------|
|-------------------------|-----------------------|
|-------------------------|-----------------------|


|-------------------------|-----------------------|
|-------------------------|-----------------------|
|-------------------------|-----------------------|
|-------------------------|-----------------------|
|-------------------------|-----------------------|
|-------------------------|-----------------------|
|
|----------<12>-(<12>)----|-----------------------|
|-14-14-14----------------|-14-14-14-<7>-(<7>)----|
|-------------------------|-----------------------|
|-------------------------|-----------------------|
|-------------------------|-----------------------|
|-------------------------|-----------------------|


  Gtr IV
|----------<12>-(<12>)----|-----------------------|
|-14-14-14----------------|-14-14-14-<7>-(<7>)----|
|-------------------------|-----------------------|
|-------------------------|-----------------------|
|-------------------------|-----------------------|
|-------------------------|-----------------------|


|--------<12>----|-(<12>)-----------|
|-<7>------------|-------------<7>--|
|----------------|------------------|
|----------------|------------------|
|----------------|------------------|
|----------------|------------------|


    F
   4/4
    Gtr IV
||-----------<12>-(<12>)-----|-------------------------|
||o-14-14-14-----------------|-14--14-14-<7>-(<7>)-----|
||---------------------------|-------------------------|
||---------------------------|-------------------------|
||o--------------------------|-------------------------|
||---------------------------|-------------------------|
|
|   Gtr II
||---------------------------|-------------------------|
||o--2-----------------------|-(2)---------------------|
||---3-----------------------|-(3)---------------------|
||---4-----------------------|-(4)---------------------|
||o--------------------------|-------------------------|
||---------------------------|-------------------------|
|
|   Gtr III
||---6-----6---------6----7--|--9------9-------6----6--|
||o--------------------------|-------------------------|
||---------------------------|-------------------------|
||---------------------------|-------------------------|
||o--------------------------|-------------------------|
||---------------------------|-------------------------|


  Ebm                        F
|----------<12>-(<12>)-----|-------------------------||
|-14-14-14-----------------|-14-14-14-<7>-(<7>)-----o||
|--------------------------|-------------------------||
|--------------------------|-------------------------||
|--------------------------|------------------------o||
|--------------------------|-------------------------||
|
|--------------------------|-------------------------||
|--3-----------------------|--0---------------------o||
|--4-----------------------|--0----------------------||
|--5-----------------------|--2----------------------||
|--------------------------|------------------------o||
|--------------------------|-------------------------||
|
|--7-----7---------7----9--|-10----10-------7----7---||
|--------------------------|------------------------o||
|--------------------------|-------------------------||
|--------------------------|-------------------------||
|--------------------------|------------------------o||
|--------------------------|-------------------------||


    F                                 Ebm             F
   4/4
          Gtr I
||----------------|-----------------|---------------|-----<12>---------||
||o-------<7>-----|-(<7>)-----------|---------------|-----------------o||
||----------------|-----------------|----<5>--------|------------------||
||----------------|-----------------|---------------|------------------||
||o---------------|-----------------|---------------|-----------------o||
||----------------|-----------------|---------------|------------------||
|
|   Gtr II
||----------------|-----------------|---------------|------------------||
||o-2-------------|--(2)------------|-3-------------|--0--------------o||
||--3-------------|--(3)------------|-4-------------|--0---------------||
||--4-------------|--(4)------------|-5-------------|--2---------------||
||o---------------|-----------------|---------------|-----------------o||
||----------------|-----------------|---------------|------------------||
|
|   Gtr III
||--6--6---6---7--|---9----9--6--6--|-7---7---7--9--|-10---10---7--7---||
||o---------------|-----------------|---------------|-----------------o||
||----------------|-----------------|---------------|------------------||
||----------------|-----------------|---------------|------------------||
||o---------------|-----------------|---------------|-----------------o||
||----------------|-----------------|---------------|------------------||


  Gtr II
|------|
|-2----|
|-3----|
|-4----|
|------|
|------|

===========================================================================
13. Numb

  Q=108
 4/4
  Gtr I
|---------------|-15---18-(18)--17--|-(17)--------------|
|------15-18-15-|-------------------|----------15-18-15-|
|---------------|-------------------|-------------------|
|---------------|-------------------|-------------------|
|---------------|-------------------|-------------------|
|---------------|-------------------|-------------------|


|-18---17-(17)------|--------------------|
|---------------18--|-(18)-----15-18-15--|
|-------------------|--------------------|
|-------------------|--------------------|
|-------------------|--------------------|
|-------------------|--------------------|


|-------------15------18-|-(18)---17---(17)-------|
|----15-18-15------------|------------------------|
|------------------------|------------------------|
|------------------------|------------------------|
|------------------------|------------------------|
|------------------------|------------------------|
|
| Gtr II
|------------------------|------------------------|
|------------------------|------------------------|
|------------------------|------------------------|
|--5---------------------|---1--------------------|
|--5---------------------|---1--------------------|
|--5---------------------|---1--------------------|
|
| Gtr III
|-10----10----10---10----|--10----10-----8----8---|
|-----8-----8----8-----8-|------8----8------8---8-|
|------------------------|------------------------|
|------------------------|------------------------|
|------------------------|------------------------|
|------------------------|------------------------|


|-------------18------17-|-(17)--------------------||
|----15-18-15------------|--------18-----15-18-15--||
|------------------------|-------------------------||
|------------------------|-------------------------||
|------------------------|-------------------------||
|------------------------|-------------------------||
|
|------------------------|-------------------------||
|------------------------|-------------------------||
|------------------------|-------------------------||
|--3---------------------|---3---------------------||
|--1---------------------|---3---------------------||
|--3---------------------|---3---------------------||
|
|-10----10----10---10----|--10----10---8-----8-----||
|-----8-----8----8-----8-|------8----8----8-----8--||
|------------------------|-------------------------||
|------------------------|-------------------------||
|------------------------|-------------------------||
|------------------------|-------------------------||


||--10--------|-6--------|-10--------|-8-----||
||o-----------|----------|-----------|------o||
||------------|----------|-----------|-------||
||------------|----------|--8--------|-------||
||o-10--------|-6--------|-----------|-8----o||
||------------|----------|-----------|-------||


  Gtr I
|--------------|----------------|---------------|-10--------------|
|-8------------|-10-------------|-11------------|-11--------------|
|-8------------|-10-------------|-12------------|-10--------------|
|-8------------|-10-------------|-12------------|-----------------|
|-6------------|--8-------------|-10------------|-----------------|
|--------------|----------------|---------------|--8--------------|
|
| Gtr II
|-----10-------|-------10-------|------10-------|-------10--------|
|-8-------8--8-|-(8)-------8--8-|--8-------8--8-|-(8)-------8--8--|
|--------------|----------------|---------------|-----------------|
|--------------|----------------|---------------|-----------------|
|--------------|----------------|---------------|-----------------|
|--------------|----------------|---------------|-----------------|


|--------------|----------------|
|-8------------|-10-------------|
|-8------------|-10-------------|
|-8------------|-10-------------|
|-6------------|--8-------------|
|--------------|----------------|
|
|-----10-------|-------10-------|
|-8-------8--8-|-(8)-------8--8-|
|--------------|----------------|
|--------------|----------------|
|--------------|----------------|
|--------------|----------------|


    Gtr II
||----------------------|-------------------|
||o---------------------|-------------------|
||----------------------|-------------------|
||---5------------------|--1----------------|
||o--5------------------|--1----------------|
||---5------------------|--1----------------|
|
|   Gtr III
||--10---10---10---10---|-10---10---8---8---|
||o----8----8----8----8-|----8----8---8---8-|
||----------------------|-------------------|
||----------------------|-------------------|
||o---------------------|-------------------|
||----------------------|-------------------|


|---------------------|--------------------||
|---------------------|-------------------o||
|---------------------|--------------------||
|--3------------------|--3-----------------||
|--1------------------|--3----------------o||
|--3------------------|--3-----------------||
|
|-10---10---10---10---|-10---10---8---8----||
|----8----8----8----8-|----8----8---8---8-o||
|---------------------|--------------------||
|---------------------|--------------------||
|---------------------|-------------------o||
|---------------------|--------------------||


||--10--------|-6--------|-10--------|-8-----||
||o-----------|----------|-----------|------o||
||------------|----------|-----------|-------||
||------------|----------|--8--------|-------||
||o-10--------|-6--------|-----------|-8----o||
||------------|----------|-----------|-------||


  Gtr I
|--------------|----------------|---------------|-10--------------|
|-8------------|-10-------------|-11------------|-11--------------|
|-8------------|-10-------------|-12------------|-10--------------|
|-8------------|-10-------------|-12------------|-----------------|
|-6------------|--8-------------|-10------------|-----------------|
|--------------|----------------|---------------|--8--------------|
|
| Gtr II
|-----10-------|-------10-------|------10-------|-------10--------|
|-8-------8--8-|-(8)-------8--8-|--8-------8--8-|-(8)-------8--8--|
|--------------|----------------|---------------|-----------------|
|--------------|----------------|---------------|-----------------|
|--------------|----------------|---------------|-----------------|
|--------------|----------------|---------------|-----------------|


|--------------|----------------|
|-8------------|-10-------------|
|-8------------|-10-------------|
|-8------------|-10-------------|
|-6------------|--8-------------|
|--------------|----------------|
|
|-----10-------|-------10-------|
|-8-------8--8-|-(8)-------8--8-|
|--------------|----------------|
|--------------|----------------|
|--------------|----------------|
|--------------|----------------|


    Gtr II
||----------------------|-------------------|
||o---------------------|-------------------|
||----------------------|-------------------|
||---5------------------|--1----------------|
||o--5------------------|--1----------------|
||---5------------------|--1----------------|
|
|   Gtr III
||--10---10---10---10---|-10---10---8---8---|
||o----8----8----8----8-|----8----8---8---8-|
||----------------------|-------------------|
||----------------------|-------------------|
||o---------------------|-------------------|
||----------------------|-------------------|


|---------------------|--------------------||
|---------------------|-------------------o||
|---------------------|--------------------||
|--3------------------|--3-----------------||
|--1------------------|--3----------------o||
|--3------------------|--3-----------------||
|
|-10---10---10---10---|-10---10---8---8----||
|----8----8----8----8-|----8----8---8---8-o||
|---------------------|--------------------||
|---------------------|--------------------||
|---------------------|-------------------o||
|---------------------|--------------------||


|---------------------|-------------------|
|---------------------|-------------------|
|---------------------|-------------------|
|--1------------------|--3----------------|
|--1------------------|--3----------------|
|--1------------------|--3----------------|
|
|-10---10---10---10---|-10---10---8---8---|
|----8----8----8----8-|----8----8---8---8-|
|---------------------|-------------------|
|---------------------|-------------------|
|---------------------|-------------------|
|---------------------|-------------------|


|---------------------|--------------------|
|---------------------|--------------------|
|---------------------|--------------------|
|--5---------7--------|--3--------0--------|
|--5---------7--------|--1--------0--------|
|--5---------7--------|--3--------0--------|
|
|-10---10---10---10---|-10---10---8---8----|
|----8----8----8----8-|----8----8---8---8--|
|---------------------|--------------------|
|---------------------|--------------------|
|---------------------|--------------------|
|---------------------|--------------------|


|---------------------|-------------------|
|---------------------|-------------------|
|---------------------|-------------------|
|--1------------------|--3----------------|
|--1------------------|--3----------------|
|--1------------------|--3----------------|
|
|-10---10---10---10---|-10---10---8---8---|
|----8----8----8----8-|----8----8---8---8-|
|---------------------|-------------------|
|---------------------|-------------------|
|---------------------|-------------------|
|---------------------|-------------------|


|--------------------------|--------------------|
|--------------------------|--------------------|
|--------------------------|--------------------|
|--0--------(0)-0--0-0---0-|--0-----------------|
|--0--------(0)-0--0-0---0-|--0-----------------|
|--0--------(0)-0--0-0---0-|--0-----------------|
|
|-10---10---10----10-------|-10---10---8---8----|
|----8----8-----8------8---|----8----8---8---8--|
|--------------------------|--------------------|
|--------------------------|--------------------|
|--------------------------|--------------------|
|--------------------------|--------------------|


    Gtr II
||----------------------|-------------------|
||o---------------------|-------------------|
||----------------------|-------------------|
||---5------------------|--1----------------|
||o--5------------------|--1----------------|
||---5------------------|--1----------------|
|
|   Gtr III
||--10---10---10---10---|-10---10---8---8---|
||o----8----8----8----8-|----8----8---8---8-|
||----------------------|-------------------|
||----------------------|-------------------|
||o---------------------|-------------------|
||----------------------|-------------------|


|---------------------|--------------------||
|---------------------|-------------------o||
|---------------------|--------------------||
|--3------------------|--3-----------------||
|--1------------------|--3----------------o||
|--3------------------|--3-----------------||
|
|-10---10---10---10---|-10---10---8---8----||
|----8----8----8----8-|----8----8---8---8-o||
|---------------------|--------------------||
|---------------------|--------------------||
|---------------------|-------------------o||
|---------------------|--------------------||


  Gtr I
|-15---18-(18)--17--|-(17)--------------|-18---17-(17)------|------------*|
|-------------------|----------15-18-15-|---------------18--|-(18)-------*|
|-------------------|-------------------|-------------------|------------*|
|-------------------|-------------------|-------------------|------------*|
|-------------------|-------------------|-------------------|------------*|
|-------------------|-------------------|-------------------|------------*|

That's all of it. It is 100% perfect. If you care to disagree, take it up with LP.
As I said before, if you would like my copy of these songs in power tab files, or
in midi files, e-mail me and ask, I'll be glad to give them to you.
comments
print report bad tab
12 comments total. Showing first comments.
0 reply
lyingfromyou118 wrote on February 24 2005, 12:00 am

Sorry guys, just brought to my attention today that Faint was copied over on most of it. I'll try reposting soon.

0 reply
rachelt wrote on March 23 2005, 12:00 am

this ones ok...i guess

0 reply
lyingfromyou118 wrote on March 25 2005, 12:00 am

That's funny since it's a simplified version of what's in the actual book!

I want to post or [tab]
guest
You may want to rate the tab now too:
select rating
Please do not post tabs as comments. Select "correction" instead!