Oops, an error
Loading. Please wait.

Meteora Tab

ver4
ver4
More versions @911Tabs.com
1,867 views 1 this week
no commentswrite comment
1 2 3 4 5
worth learning
x 1
add to favorites launch autoscroll
font size
0
reset
Autoscroll
+/-
esc
set tempo
stop
Contributor
WARNING: You are trying to view
                                    content from Ultimate-Guitar.com
                                    in an unauthorized application,
                                    which is prohibited.

                                    Please use an official Ultimate
                                    Guitar Tabs application for iPhone,
                                    iPad or Android to access legitimate
                                    chords, guitar, bass, and drum tabs
                                    from Ultimate-Guitar.com database.

                                    Type "ultimate guitar tabs" in Apple
                                    App Store's or Android Market's
                                    search to find the application.
-------------------------------------------------------------------------------
             METEORA Album Guitar Tab - Linkin Park
-------------------------------------------------------------------------------
Tabbed by: zoastev
Email: zoastev@yahoo.com

Track List:
---------------
1.  Foreword
2.  Don't Stay
3.  Somewhere I Belong
4.  Lying From You
5.  Hit The Floor
6.  Easier To Run
7.  Faint
8.  Figure.09
9.  Breaking The Habit
10. From The Inside
11. Nobody's Listening
12. Session
13. Numb

/  = slide up
\  = slide down
h  = hammer-on
p  = pull-off
b  = bend
r  = release bend
t  = right hand tap
w  = whammy bar
~  = vibrato
*  = harmonic
() = ghost note
.  = palm mute
x  = mute

1. Foreword
No guitar in this

2. Don't Stay
Tuning: B F# B E G# C# (six string extended scale)
NOTE: Can also be played on a seven string.

Main Riff:
|------------------------|
|------------------------|
|-------2----------------|
|-0-0-0-2-3-3-5-5-5-8--7-|
|-0-0-0-0-3-3-5-5-5-8--7-|
|-0-0-0---3-3-5-5-5-8--7-|

Verse 1 (x2):
|-------------------------------------------|------------|
|-------------------------------------------|------------|
|-------2----------------(x3)---------2-----|------------|
|-0-0-0-2-3-3-5-5-5-8--7--------0-0-0-2-3-3-|-0-1-1-1-x--|
|-0-0-0-0-3-3-5-5-5-8--7--------0-0-0-0-3-3-|-0-1-1-1-x--|
|-0-0-0---3-3-5-5-5-8--7--------0-0-0---3-3-|-0-1-1-1-x--|

Chorus (x4):
|--------------------------|
|--------------------------|
|--------------------------|
|-0-0-0-7-8-10-5-5-5-7-3-1-|
|-0-0-0-7-8-10-5-5-5-7-3-1-|
|-0-0-0-7-8-10-5-5-5-7-3-1-|

Bridge (x2):
|----------------------------|----------------------|
|----------------------------|----------------------|
|----------5-5-5-5-5/8--(x3)-|----------5-5-5-5b-5b-|
|-0-0-1-0--x-x-x-x-x-x-------|-0-0-1-0--x-x-x-x--x--|
|-0-0-1-0--3-3-3-3-3/6-------|-0-0-1-0--3-3-3-3b-3b-|
|-0-0-1-0--------------------|-0-0-1-0--------------|
                   ignore on 2nd repeat ^

|----------------------------------------------------------------|
|----------------------------------------------------------------|
|----------------------------------------------------------------|
|-0-0-1-0--1-1-1-x-x-x-1-1-1-x-x-x-1-1-1-x-x-x-1-1-1-1-1-1-1-1---|
|-0-0-1-0--1-1-1-x-x-x-1-1-1-x-x-x-1-1-1-x-x-x-1-1-1-1-1-1-1-1---|
|-0-0-1-0--1-1-1-x-x-x-1-1-1-x-x-x-1-1-1-x-x-x-1-1-1-1-1-1-1-1---|

2. Somewhere I Belong
Tuning: A# D# G# C# F# A# (six string extended scale)
NOTE: This song uses two guitars. Can also be played on a seven string in 1/2 step down tuning.

Intro:
(Standard tuning acoustic reversed with pro tools)
|---------------------|
|-2-------------------|
|-3----3----5----2----|
|-3----4----6----4----|
|-1----4----6----4----|
|------2----4----2----|

Gtr.1 (comes in on 0:11)
|--------10-------|
|---11-------11---|
|-9----9----------|
|-----------------|
|-----------------|
|-----------------|

Gtr.2 (-0:21-) (slowly increase volume knob)
|--------|
|--------|
|---9~---|
|---x----|
|---7~---|
|--------|

Intro/Chorus:
Gtr.1
|----------------------------|        |---------------------------|
|-8888--9999--11111111--9999-|        |-8888-9999-----------------|
|-xxxx--xxxx---x-x-x-x--xxxx-| x3 on  |-xxxx-xxxx-11111111-9999---|
|-6666--7777---9-9-9-9--7777-| Chorus |-6666-7777--x-x-x-x-xxxx---|
|----------------------------| only   |------------9-9-9-9-7777---|
|----------------------------|        |---------------------------|

Gtr.2
|---------------------|        |---------------------|
|---------------------|        |---------------------|
|-----------5555-2222-| x3 on  |-----------7777------|
|-9999-5555-5555-2222-| Chorus |-9999-5555-7777-7777-|
|-7777-5555-3333-0000-| only   |-7777-5555-5555-7777-|
|-7777-3333-----------|        |-7777-3333------5555-|

Verse:
Gtr.1
|--------10-------|
|---11-------11---|
|-9----9----------|
|-----------------|
|-----------------|
|-----------------|

Before chorus (end of verse)
Gtr.2
|-----------------|
|-----------------|
|-----------------|
|-----------------|
|-----------------|
|-*5*5*5*5*5*5*5--|


Bridge:
Both Guitars
|-------------------------------------------|
|-----1111-------1111-------1111------6/7-6-|
|--99--x-x--------x-x--------x-x------x/x-x-|
|--99--9-9--1010--9-9--1212--9-9--77--4/5-4-| x2
|--77-------1010-------1212-------77--------|
|------------8-8-------1010-------55--------|

|-------------------------------------------|
|-----1111--------14--------1111------6/7-6-|
|--99--x-x---------x---------x-x------x/x-x-|
|--99--9-9--1010--12---1212--9-9--77--4/5-4-|
|--77-------1010-------1212-------77--------|
|------------8-8-------1010-------55--------|

|-------------------------------------------|
|-----1111-------1111---------9-------6/7---|
|--99--x-x--------x-x---------x-------x/x-9-|
|--99--9-9--1010--9-9--1212---7---77--4/5-x-|
|--77-------1010-------1212-------77------7-|
|------------8-8-------1010-------55--------|

Outro:
Gtr.1
|-------------------|
|-------------------|
|-------------------|
|-999999------------|
|-777777------------|
|-777777--*5*5*5*5--|

Gtr.2
|-------------------|
|-------------------|
|-------------------|
|-222222------------|
|-222222------------|
|-000000--*5*5*5*5--|

4. Lying From You
Tuning: Drop D & 1/2 step down (C# G# C# F# A# D#)

Intro/Bridge:
|------|------------------------------|
|------|------------------------------|
|------|------------------------(x4)--|
|-2222-|--0-2-1-0-3-2-1--0-6----------|
|-2222-|--0-2-1-0-3-2-1--0-6----------|
|-2222-|--0-2-1-0-3-2-1--0-6----------|
pm....
Verse:
|----------------------------------------------------------------|
|----------------------------------------------------------------|
|--------------------------(x3)----------------------------------|
|--2-2-----7-7----00-00-0--------2-2-----7-7-7777--7-7-7777------|
|--2-2-----5-5----00-00-0--------2-2-----5-5-5555--7-7-7777------|
|--2-2-----5-5----00-00-0--------2-2-----5-5-5555--7-7-7777------|

Chorus (x2):
|---------------------------------------------|
|---------------------------------------------|
|--------/1111-1111\77-7/9-99-----------------|
|-2-2--x--x-x---x-x\xx-x/x-xx--777-77-00-0-0--|
|-2-2--x-/9-9---9-9\55-5/7-77--555-55-00-0-0--|
|-2-2--x-----------------------555-55-00-0-0--|

|-----------------------------|------------------|
|-----------------------------|------------------|
|--------/1111-1111\77-7/9-99-|------------------|
|-5-5--x--x-x---x-x\xx-x/x-xx-|-777-77-04-0-00---|
|-3-3--x-/9-9---9-9\55-5/7-77-|-777-77-04-0-00---|
|-5-5--x----------------------|-777-77-04-0-00---|
                                      ^
                   skip this after 2nd repeat of 2nd chorus

Post-Chorus/Ending
|-------------------------------|
|-------------------------------|
|-------------------------------|
|-7-7-7-77-77-7-7--7-7-7-77-0-x-|
|-7-7-7-77-77-7-7--7-7-7-77-0-x-|
|-7-7-7-77-77-7-7--7-7-7-77-0-x-|

then go to Intro/Bridge x2
     2nd Chorus
  then Post-Chorus/Ending

5. Hit The Floor
Tuning: Drop D & 1/2 step down (C# G# C# F# A# D#)

Intro/Verse:
|------------------|
|------------------|
|------------------|
|------------------|
|------------------|
|--0-4-0-1--1-1-0--|
pm . . . .  . . .

Chorus:
|--------|-----------------------|
|--------|-----------------------|
|--------|-----------------------|
|-0-88-7-|-0-4-0-1-1-1-0--0-88-7-|
|-0-88-7-|-0-4-0-1-1-1-0--0-88-7-|
|-0-88-7-|-0-4-0-1-1-1-0--0-88-7-|

Bridge:
|-------------------------|
|-------------------------|
|-------------------------|
|-0-0-0--03~--0-0-0--01~--|
|-0-0-0--01~--0-0-0--01~--|
|-0-0-0--03~--0-0-0--01~--|

End:
|---------------------------------------|
|---------------------------------------|
|---------------------------------------|
|-0-4-0-1-1-1-0--0-88-7--0-4-0-1-1-1-0w-|
|-0-4-0-1-1-1-0--0-88-7--0-4-0-1-1-1-0w-|
|-0-4-0-1-1-1-0--0-88-7--0-4-0-1-1-1-0w-|
                              (Fade out with whammy bar if you have one)

6. Easier To Run
Tuning: A# D# G# C# F# A# (six string extended scale)
NOTE: This song uses two guitars. Can also be played on a seven string in 1/2 step down tuning.


Intro/Verse:
Gtr.1
|----------------------------------|
|-----------*12---*12--------------|
|------------------------------*7--|
|----*7----------------------------|
|-*7----*7------------------*7-----|
|----------------------*3----------|

Gtr.2 (-0:21-)[Slowly increase volume knob]:
|-------|
|--9~---|
|--x----|
|--7~---|
|-------|
|-------|

Chorus:
Gtr.1
|--------------------------------------------------------------------------|
|-999999999999999999999777777777777--9999999999999999999991111111111111111-|
|-xxxxxxxxxxxxxxxxxxxxxxxxxxxxxxxxx--xxxxxxxxxxxxxxxxxxxxxxxxxxxxxxxxxxxxx-|
|-777777777777777777777555555555555--7777777777777777777777999999999999999-|
|--------------------------------------------------------------------------|
|--------------------------------------------------------------------------|

Gtr.2
|----------------------------------------------------|
|----------------------------------------------------|
|----------------------------------------------------|
|--7--7--7----10--10--10-----12--12--12-----9--9--9--|
|--7--7--7-----8---8---8-----10--10--10-----7--7--9--|
|--5--5--5-----8---8---8-----10--10--10-----7--7--7--|

End of chorus (slowly decrease volume knob)
Gtr.2
|-------|
|--9~---|
|--x----|
|--7~---|
|-------|
|-------|

Bridge:
Gtr.1
|--------------------------------------------------------------------------|
|-999999999999999999999777777777777--9999999999999999999999999999999999999-|
|-xxxxxxxxxxxxxxxxxxxxxxxxxxxxxxxxx--xxxxxxxxxxxxxxxxxxxxxxxxxxxxxxxxxxxxx-|
|-777777777777777777777555555555555--7777777777777777777777777777777777777-|
|--------------------------------------------------------------------------|
|--------------------------------------------------------------------------|

Gtr.2
|--------------------------------------------------------------------------|
|--------------------------------------------------------------------------|
|--------------------------------------------------------------------------|
|-10--10--10-----12--12--12----14--14--14----9-9-9---10-10-10--12~---------|
|--8---8---8-----10--10--10----12--12--12----7-7-7----8--8--8--10~---------|
|--8---8---8-----10--10--10----12--12--12----7-7-7----8--8--8--10~--/////--|
                                                           pickslide ^
End:
|-------|
|-------|
|-------|
|--*9~~-|
|-------|
|-------|

7. Faint
Tuning: Drop D & 1/2 step down (C# G# C# F# A# D#)
NOTE: This song uses two guitars

Intro:
Gtr.2 (slowly increase volume knob until the pre-chorus)
|----|
|----|
|----|
|-0--|
|-0--|
|-0--|

Chorus:
Gtr.1 (This part is played faster then Gtr.2 part)
|----------|----------------------------------|
|----------|----------------------------------|
|--7777----|--777/1414\1212-121212/1414\1010--|
|--xxxx----|--xxx--x-x--x-x--x-x-x--x-x--x-x--|
|--5555----|--555/1212\1010-101010/1212\-8-8--|
|----------|----------------------------------|
  ^ Pre Chorus

Gtr.2
|----------|----------------------------------|
|----------|----------------------------------|
|----------|----------------------------------|
|----------|--0-0-0-0-5-5-3-3-8-8-8-8-55-77-3-|
|----------|--0-0-0-0-3-3-3-3-8-8-8-8-55-77-3-|
|----------|--0-0-0-0-3-3-3-3-8-8-8-8-55-77-3-|

Verse:
Gtr.1
|-----|-----|-----|-----------|
|-----|-----|-----|-----------|
|-----|-----|-----|-----------|
|--0--|--0--|--0--|--8----5---|
|--0--|--0--|--0--|--8----3---|
|--0--|--0--|--0--|--8----5---|

Bridge
Both Guitars
|-------------------------|
|-------------------------|
|----2-----------2--------|
|--0-2-3232---00-2-3232---|
|--0-0-3232---00-0-3232---|
|--0---3232---00---3232---|

The next Chorus is without the Pre Chorus.

End:
Gtr.1
|-------------|
|-------------|
|-1010--888---|
|--x-x--xxx---|
|--8-8--666---|
|-------------|

Gtr.2
|-------------|
|-------------|
|-------------|
|-3-3---111---|
|-3-3---111---|
|-3-3---111---|

8. Figure.09
Tuning: C# G# C# X C# X (Drop D & 1/2 step down)
NOTE: This song uses a guitar with the thin strings (G B E) tooken out and the B string 
replaced with a low E string tuned to C#. If you want to keep your strings then play the 
on low E (C#) string.

Intro:
|                                                                 |
|--*12t-0-*15t-*12t-0-*15t-*12t-0-*15--*12th1-*12th1-*13t-*12th1--|
|                                                                 |
|-----------------------------------------------------------------|
|-----------------------------------------------------------------|
|-----------------------------------------------------------------|

Main Riff:
|                                        |
|----------------------------------------|
|                                        |
|-0----5--0----5--0----5--0h1-111-0h1----|
|-0-*5-3--0-*5-3--0-*5-3--0h1-111-0h1----|
|-0-*5-3--0-*5-3--0-*5-3--0h1-111-0h1----|

Verse (x2):
|                                     |
|-------------------------------------|
|                                     |
|-0------0------0------0h1-111-0h1----|
|-0-*5---0-*5---0-*5---0h1-111-0h1----|
|-0-*5---0-*5---0-*5---0h1-111-0h1----|

then Main Riff x2

Pre Chorus:
|                     |
|---------------------|
|                     |
|-00-8--00-8--00-8----|
|-00-8--00-8--00-8----|
|---------------------|

Chorus:
|                                               |
|-----------------------------------------------|
|                      (x3)                (2)<-- if u keep the high strings
|-0-0-8-10-0h3-3-5-7---------0-0-8-10-0h3-3-2-1-|
|-0-0-8-8--0h3-3-5-7---------0-0-8-8--0h3-3-0-1-|
|-0-0-8-8--0h3-3-5-7---------0-0-8-8--0h3-3---1-|

then Main Riff x1
     Verse
     Main Riff x2
     Pre Chorus
     Chorus
     Intro chords

Bridge (x2):
|                                      |
|--------------------------------------|
|                                      |
|-1-0-xxx-0h2-3-----1-0-xxx-0h2-3------|
|-1-0-xxx-0h2-3-*4--1-0-xxx-0h2-3-*5---|
|-1-0-xxx-0h2-3-*4--1-0-xxx-0h2-3-*5---|

|                                      |
|--------------------------------------|
|                                      |
|-1-0-xxx-0h2-3-----1-0-xxx-0h2-3-xx-x-|
|-1-0-xxx-0h2-3-*4--1-0-xxx-0h2-3-xx-x-|
|-1-0-xxx-0h2-3-*4--1-0-xxx-0h2-3-xx-x-|
                                    |-1-|
then Chorus x2 (keep strumming last |-1-|)
                                    |-1-|

9. Breaking The Habit
Tuning: Drop D & 1/2 step down (C# G# C# F# A# D#)

Main Riff:
|---------------------------------|
|---------------------------------|
|--5--6--8--5-5-------5-5-6--5-5--|
|---------------------------------|
|---------------------------------|
|---------------------------------|

Chorus/Bridge:
|---------------------------------|
|---------4---4-6-------4---4-6---|
|---3--------------3--3-----------|
|---------------------------------|
|---------------------------------|
|---------------------------------|

10. From The Inside
Tuning: Drop D & 1/2 step down (C# G# C# F# A# D#)
NOTE: This song uses two guitars

Dj Sample Intro (Converted to guitar)
|-------------------------|
|-------------------------|
|---------------*12-------|
|-*7-*12-*7-*12-----*12---|
|-------------------------|
|-------------------------|


Intro/Chorus:
both guitars
|------------------------------------|
|------------------------------------|
|------------------------------------|
|-0-0-0---3-3-3---8-8-8---5-5--7-7---|
|-0-0-0---3-3-3---8-8-8---5-5--7-7---|
|-0-0-0---3-3-3---8-8-8---5-5--7-7---|

Keyboard Verse:
Gtr.1
|-5---5---5----------------5---5---5---------------|
|-------------8---8---5----------------5---5---6---|
|---7---7---7---7---7---7----7---7---7---7---7---7-|
|--------------------------------------------------|
|--------------------------------------------------|
|--------------------------------------------------|

Pre Chorus:
both guitars
|------------------|
|------------------|
|------------------|
|------------------|
|------------------|
|-*12-*12-*12-*12--|

Bridge:
both guitars
|-------------------------|
|-------------------------|
|---------(x3)------------|
|-00-0-0-------0h1-1-11---|
|-00-0-0-------0h1-1-11---|
|-00-0-0-------0h1-1-11---|

|------------------------|-----------------|
|------------------------|-----------------|
|------------------(x3)--|-----------------|  x2
|-00-00------0-1---------|--1-11-111-------|
|-00-00-*7---0-1---------|--1-11-111-------|
|-00-00------0-1---------|--1-11-111-------|

End:
both guitars
|------------------|
|------------------|
|-----------(x4)---|
|-00-0-0-----------|
|-00-0-0-----------|
|-00-0-0-----------|

11. Nobody's Listening
Tuning: B F# B E G# C# (six string extended scale)
NOTE: Can also be played on a seven string.

Main Riff (Chorus only):
|----------------------------------------------|
|----------------------------------------------|
|----------------------------------------------|
|-3-3-3--3--3--4-4--4-4--3-3-3--3--3--1-1--4-4-|
|-3-3-3--3--3--4-4--4-4--3-3-3--3--3--1-1--4-4-|
|-3-3-3--3--3--4-4--4-4--3-3-3--3--3--1-1--4-4-|
pm. . .  .  .  . .  . .  . . .  .  .  . .  . .

12. Session
Tuning: Drop D & 1/2 step down (C# G# C# F# A# D#)
NOTE: If you are in a band and plan to play this song without Dj samples, then you will 
three guitars.

Riff 1 (repeat until -0:57-)
Gtr.1 [Clean] -0:00-
|---------------------*12~--|
|---*7~~--------------------|
|------------*5~~-----------|
|---------------------------|
|---------------------------|
|---------------------------|

Riff 2 (repeat until end of song):
Gtr.2 [Clean] -0:38-
|--------------------|
|---2~----3~---------|
|---3~----4~-----0~--|
|---4~----5~-----2~--|
|--------------------|
|--------------------|

Riff 3 (repeat until end of song):
Gtr.1 -0:57-
|----------------------------------------------------|
|------------*12-14~~------*12-*12-*12-14-------*12~-|
|------------------------------------------*7~-------|
|--*7-*7-*7-----------*7~----------------------------|
|----------------------------------------------------|
|----------------------------------------------------|

Riff 4:
Gtr.3 -1:17-
|--------*12~~----------*12~~--|
|--14~~--------14-14~----------|
|------------------------------| x3
|------------------------------|
|------------------------------|
|------------------------------|
then
|--------*12-------|
|--*7--------*7----|
|------------------|
|------------------|
|------------------|
|------------------|

13. Numb
Tuning: Drop D & 1/2 step down (C# G# C# F# A# D#)

Chorus:
|---------------|
|---------------|
|---------------|
|--5~-1~-3~-3~--|
|--5~-1~-1~-3~--|
|--5~-1~-3~-3~--|

Verse:
|-----------------------------------------|
|-----------------------------------------|
|------------*7-----------------*7--------|
|--*12--*12-------*12-*12--*12------------|
|-----------------------------------------|
|-----------------------------------------|

Bridge:
|-----------------------------|
|-----------------------------|
|-----------------------------|
|--1~-3~-5-7-8-7-1~-3~-0~-0~--|
|--1~-3~-5-7-8-7-1~-3~-0~-0~--|
|--1~-3~-5-7-8-7-1~-3~-0~-0~--|


Linkin Park
===============================================================================
comments
We did not receive enough feedback on this tab! Please rate:
1 2 3 4 5
I want to post or [tab]
guest
You may want to rate the tab now too:
select rating
Please do not post tabs as comments. Select "correction" instead!