Oops, an error
Loading. Please wait.

Minutes To Midnight Bass Tab

ver2
ver2

Album

More versions @911Tabs.com
6,666 views 9 this week
30 commentsread comments
1 2 3 4 5
accurate
x 13
Autoscroll
+/-
esc
set tempo
stop
Contributor
Hey! There's an official Ultimate Guitar app which is ideal
for learning songs when you're away from computer. Get the app
WARNING: You are trying to view
                                    content from Ultimate-Guitar.com
                                    in an unauthorized application,
                                    which is prohibited.

                                    Please use an official Ultimate
                                    Guitar Tabs application for iPhone,
                                    iPad or Android to access legitimate
                                    chords, guitar, bass, and drum tabs
                                    from Ultimate-Guitar.com database.

                                    Type "ultimate guitar tabs" in Apple
                                    App Store's or Android Market's
                                    search to find the application.
Well, here it is.  The first full album bass tab of M2M on this website,
no offense.  After tabbing out the album for guitar, I figured why not do
the same for bass, especially considering no one had posted some of the
songs on the album anyway.  Well, here it is, after two days spent hard at
work on this tab.  It's not a really hard album to play on bass, but it's
fun, so enjoy.

Every song is in Drop D, except Shadow of the Day for convenience reasons.

The only parts I had to reference another person's tab on was in Bleed it
Out and No More Sorrow.  I referenced the bass tab on this site by slimk
to find a note that was frustrating me in Bleed It Out, and also I used
Michel Franceschino's tab on this site to find out how to play the No
More Sorrow bridge.  Thanks to both of them, because without looking at
their tabs this album tab would have taken much longer and would've been
really hard to get.

Pay attention to multipliers in the tabs; this tells you how many times
to play a certain note or bar.  Also, some songs' bass lines don't kick
in until the song is already going, so be sure to make a note of which
section the tab is for.

As with all my tabs, leave a comment if you have anything to say or find
any mistakes, I will fix this as soon as I find out about them.  Also, if
you find a mistake and leave a comment about it, wait a few days to rate
my tab so I can have time to fix and resubmit my tab, this allows for
you to help make this tab as good as possible and keep the rating as
accurate as possible. Thank you.

Update 3/18/08: Thanks to Kickiniteasy I now know the bridge in No More Sorrow is 
5 times.  I was too lazy to figure it out on my own.

1. Wake
This song contains two riffs, I will call them A and B.
Riff A
|--------------------------|
|--------------------------|
|--------------5---------3-|
|-5---5-5-5-5----5-5-5-5---|x2
Riff B
|-------------------------|
|-------------6-5-3-0-3-5-|
|-------------------------|
|-5---5-5-5-5-------------|x2
Repeat riff A x2 again, then Riff B until the song ends


2. Given Up, Intro
|---|-------------------------------|
|---|-------------------------------|
|---|-------------------------------|
|-3-|-2---2-2---2-2---2-2-2---2-2-3-|x3

|-------------------------------|
|-------------------------------|
|---------------------1---------|
|-2---2-2---2-2---------------3-|
Verse (play twice)
|---------------------------------------------------------------|
|---------------------------------------------------------------|
|---------------------------------------------------------------|
|-2---2-2---2-2---2-2-2---2-2-3---2---2-2---2-2---2-2-2---2-2-3-|x2

|---------------------------------------------------------------|
|---------------------------------------------------------------|
|-----------------------------------------------------1---------|
|-0---0-0---0-0---0-0-0---0-0-3---2---2-2---2-2---2-2-----2-2-3-|
Pre-Chorus
|-------------------|
|-------------------|
|-2-2-2-2-2-2-2-2-2-|
|-------------------|
Chorus
|-----------------------------------------------------------------|
|-----------------------------------------------------------------|
|-----------------------------------------------------------------|
|-2---2-2---2-2-2-5---5-5---5-5-5-0---0-0---0-0-0-7---7-7---7-7-7-|x3

|---------------------------------------------------------------------------------|
|---------------------------------------------------------------------------------|
|---------------------------------------------------------------------------------|
|-2---2-2---2-2-2-5---5-5---5-5-5-0---0-0---0-0-0-0---0-0---0-0-0-0---0-0---0-0-0-|

-------------------------|
-------------------------|
-------------------------|
-7-7-7-7-7-7-7-7---8---3-|
Repeat Verse, Chorus, and then play Bridge:
|-----------------------------------------------------------------|
|-----------------------------------------------------------------|
|-----------------------------------------------------------------|
|-0-1-2-0-4-3-0-6-5-0-1-2-0-2-----0-1-2-0-4-3-0-6-5-0-1-2-0-4-3-2-|x2

|-----------------------------------------------------|
|-----------------------------------------------------|
|-----------------------------------------------------|
|-0-1-2-0-4-3-0-6-5-0-1-2-0-1-3-0-5-0-2-0-3-2-3-0-2---|
Repeat Chorus, end song on:
|-----|
|-----|
|-----|
|-2---|


3. Leave out All the Rest, verse
|---------------------------------|
|-------------------------0-------|
|-0-------3-----------------------|
|-----------------3---------------| x2

Pre-Chorus
|-----------------|
|---------0-------|
|-----------------|
|-3---------------|

Chorus is same as verse, after that repeat verse, pre-chorus, and chorus
Bridge
|-------------------------------------------------|
|-3-------0-----------------------3-------0-------|
|-----------------0-------3-----------------------|
|-------------------------------------------------|
Repeat Chorus


4. Bleed It Out
Thank you again to slimk for the notes that I dind't find in this tab.
Pre-Chorus (“Truth is you can stop and stare”)
|-----------------------------------------------------------------|
|-0-0-0-0-0-0-0-0-2-2-2-2-2-2-2-2-----------------4-4-4-4-4-4-4-4-|
|-----------------------------------------------------------------|
|---------------------------------4-4-4-4-4-4-4-4-----------------|

|-----------------------------------------------------------------|
|-0-0-0-0-0-0-0-0-2-2-2-2-2-2-2-2-----------------2-2-2-2---------|
|---------------------------------2-2-2-2-2-2-2-2---------4-4-4-4-|
|-----------------------------------------------------------------|

Chorus
|-----------------------------------------------------------------|
|-------------------------------------------------2-2-2-2---------|
|-----------------0-0-0-0-4-4-4-4-2-2-2-2-2-2-2-2---------4-4-4-4-|
|-4-4-4-4-4-4-4-4-------------------------------------------------|x2
End with 4\ on lowest D string (E string)
Repeat verse, pre-chorus, and chorus
Bridge
|-----------------------------------------------------------------|
|-----------------------------------------------------------------|
|-----------------------------------------------------------------|
|-0---0---0-0-0-0-0---0---0-0-0-0-2---2---2-2-2-2-2---2---2-2-2-2-| x2

|---------------------------|
|---------------------------|
|---------------------------|
|-0---0---0-0-2---2---2-2-4-|
Repeat Chorus x2, end song on 4 on lowest d string (e string)


5. Shadow of the Day (STANDARD tuning), Verse
|-----------------------------------------------------------------|
|-----------------------------------------------------------------|
|-----------------------------------------------------------------|
|-4-4-4-4-4-4-4-4-6-6-6-6-6-6-6-6-0-0-0-0-0-0-0-0-0-0-0-0-0-3-3-3-|x4

Chorus
|-----------------------------------------------------------------|
|-----------------------------------------------------------------|
|-2-2-2-2-2-2-2-2-4-4-4-4-4-4-4-4---------------------------------|
|---------------------------------4-4-4-4-4-4-4-4-0-0-0-0-0-3-3-3-|x4

Repeat Verse, Chorus, verse x2 for bridge, Chorus, then Chorus x2 for second bridge)
Repeat Chorus again for ending
Chorus variation (played whenever Chester sings “And the Shadow
of the Day…”- there are 3 of these)
|-----------------------------------------------------------------|
|-----------------------------------------------------------------|
|-2-2-2-2-2-2-2-2-------------------------------------------------|
|-----------------2-2-2-2-2-2-2-2-4-4-4-4-4-4-4-4-0-0-0-0-0-3-3-3-|


6. What I’ve Done, Chorus
|-----------------------------------------------------------------|
|-----------------3-3-3-3-3-3-3-3---------------------------------|
|-1-1-1-1-1-1-1-1---------------------------------3-3-3-3-3-3-3-3-|
|---------------------------------3-3-3-3-3-3-3-3-----------------|x2

No bass in verse, repeat chorus, verse, then chorus again,
playing the following as the second bar instead:
|---------------------------------------------------------------------------------|
|-----------------3-3-3-3-3-3-3-3-------------------------------------------------|
|-1-1-1-1-1-1-1-1---------------------------------3-3-3-3-5-5-5-5-6-6-6-6-8-8-8-8-|
|---------------------------------3-3-3-3-3-3-3-3---------------------------------|
For the bridge repeat the last chorus including the variation, ending on 10 on the A
 Repeat chorus without variation again, then for the outro repeat the bridge.


7. Hands Held High, verse 2 (plays with piano)
|-------------------------------------------------------------------------------|
|-----------------------------------------12------------------------------------|
|-12--------12----11----9--------9--------------------------12------------------|
|---------------------------------------------------------------------14--------|x2
Verse ending/Chorus
|--------------------------------------|
|--------12----------------------------|
|-9----------------12------------------| play twice to end verse,
|----------------------------14--------| play in chorus until bass stops


8. No More Sorrow
Once again, thank you to Michel Franceschino for the bridge riff.
Intro pt 1(main riff)
|---------------|
|---------------|
|---------------|
|-1-1-1-1-1-1-1-| x4
Intro pt 2 (part in parenthesis is guitar only, you can
use it as a reference as to where the song is, but don’t play it)
|-------------------------------------------------|
|-------------------------------------------------|
|-------------------------------------------------|
|-1-1-1-1-1-1-1----(1-1-1-1----1-1-1-1-1-1-1-1-1)-|
Chorus
|-------------------------------------------------|
|-------------------------------------------------|
|-------------------------------------------------|
|-2-2-2-2-2-2-1-1-1-1-1-1-------------------------|
|-------------------------1-1-1-1-1-1-1-1-1-1-1-1-| x3

|-------------------------------------------------|
|-------------------------------------------------|
|-------------------------------------------------|
|-4-4-4-4-4-4-4-4-4-4-4-4-8-8-8-8-8-8-0-0-0-0-0-0-|

Verse (same as intro pt 2, except play everything)
|-----------------------------------------------|
|-----------------------------------------------|
|-----------------------------------------------|
|-1-1-1-1-1-1-1----1-1-1-1----1-1-1-1-1-1-1-1-1-|
Repeat chorus, verse, chorus, and then bridge:
|---------------------------------|
|---------------------------------|
|---------------------------------|
|-0---1---0---3---2---0---1---5---| repeat 5x (thanks to kickiniteasy)
PM.   .   .   .   .   .   .   .
Repeat chorus, and then verse for outro


9. Valentine’s Day, verse (starts just before Chester sings “And now the darkness…”)
|---------------------------------------------------------------------------------|
|-0-0-0-0-0-0-0-0-0-0-0-0-0-0-0-0-------------------------------------------------|
|-------------------------------------------------3-3-3-3-3-3-3-3-1-1-1-1-1-1-1-1-|
|---------------------------------3-3-3-3-3-3-3-3---------------------------------|

|---------------------------------------------------------------------------------|
|-----------------3-3-3-3-3-3-3-3-------------------------------------------------|
|-3-3-3-3-3-3-3-3-----------------3-3-3-3-3-3-3-3-1-1-1-1-1-1-1-1-3-3-3-3-3-3-3-3-|
|---------------------------------------------------------------------------------|

Break, then:
|-------------------------------------------------|
|-------------------------------------------------|
|---------------------------------3-3-3-3-3-3-3-3-|
|-3-3-3-3-3-3-3-3-3-3-3-3-3-3-3-3-----------------|

|-----------------------------------------------------------------|
|-0-0-0-0-0-0-0-0-0-0-0-0-0-0-0-0---------------------------------|
|-------------------------------------------------3-3-3-3-3-3-3-3-|
|---------------------------------3-3-3-3-3-3-3-3-----------------| x3

|-----------------------------------------------------------------|
|---------------------------------3-3-3-3-3-3-3-3-----------------|
|-1-1-1-1-1-1-1-1-3-3-3-3-3-3-3-3-----------------3-3-3-3-3-3-3-3-|
|-----------------------------------------------------------------| x2

|---------------------------------|
|---------------------------------|
|-1-1-1-1-1-1-1-1-3-3-3-3-3-3-3-3-|
|---------------------------------|

Pre Chorus
|---------------------------------------------------------------------------------|
|---------------------------------3-3-3-3-3-3-3-3---------------------------------|
|-1-1-1-1-1-1-1-1-3-3-3-3-3-3-3-3-----------------0-0-0-0-0-0-0-0-1-1-1-1-1-1-1-1-|
|---------------------------------------------------------------------------------|

Chorus
|-----------------------------------------------------------------|
|-----------------------------------------------------------------|
|-5-5-5-5-5-5-5-5-5-5-5-5-5-5-5-5-----------------3-3-3-3-3-3-3-3-|
|---------------------------------3-3-3-3-3-3-3-3-----------------|
repeat this until the end


10. In Between, verse 2
|-------------------------------------------------------------------------------|
|-------------------------------------------------------------------------------|
|1----4-------------1----4------------------------1-------------------1----2----|
|----------6------------------6----5----4----1---------6----4----6--------------|

Chorus 2
|---------------------    ----------------------------------------------------|
|---------------------    ----------------------------------------------------|
|-4----6--------------    ----------------------------------------------------|
|-----------8----6---- x3 -4----6----4----1--------4----6----8~---------------|

Bridge
|----------------------------    ------------------------------------|
|----------------------------    ------------------------------------|
|----------6-----------------    ----------6-------------------------|
|-9-----------------8-------- x2 -9-----------------6----------------|

Chorus 3
|---------------------    ------------------------------------------------|
|---------------------    ------------------------------------------------|
|-4----6--------------    ------------------------------------------------|
|-----------8----6---- x3 -4----6----1--------4----6----1--------4--6--8--|


11.In Pieces, verse (comes in at “Your lips say that you love”)
|-------------------------------------------------|
|-3--3--3--3--------------------------------------|
|-------------4--4--4--4--1--1--1--1--3--3--3--3--|
|-------------------------------------------------| x9
Builds up...
|-----------------------------------------------------------------|
|-1-1-1-1-1-1-1-1-1-1-1-1-1-1-1-1-4-4-4-4-4-4-4-4-4-4-4-4-4-4-4-4-|
|-----------------------------------------------------------------|
|-----------------------------------------------------------------|

|-----------------------------------------------------------------|
|-----------------------------------------------------------------|
|-6-6-6-6-6-6-6-6-6-6-6-6-6-6-6-6-1-1-1-1-1-1-1-1-1-1-1-1-1-1-1-1-|
|-----------------------------------------------------------------|

Bridge (Solo)                     | hit each of these notes 16 times |
|---------------------------------|----------------------------------|--------|
|-3-------------------------------|----3-----------------------------|--------|
|----------4--------1--------3----|--------------4--------1--------3-|--------|
|---------------------------------|----------------------------------|--------|

Post solo (each note 16x)
|-------------------------------------|
|-3-----------------------------------|
|----------4--------------------------|
|-------------------6--------1--------|


Little Things Give You Away, verse 2
|-------------------------------------------------|
|-------------------------------------------------|
|-0-0-0-0-0-0-3-3-3-3-2-0-------------------------|
|-------------------------0-0-0-0-0-0-0-0-0-0-0-0-| x3

|-------------------------------------------------------------------------|
|-------------------------------------------------------------------------|
|-3-3-3-3-3-3-0-0-0-0-0-0-------------------------3-3-3-3-3-3-------------|
|-------------------------0-0-0-0-0-0-0-0-0-0-0-0-------------0-0-0-0-0-0-|

Chorus 2
|-------------------------|
|-------------------------|
|-0-0-0-------------------|
|-------5-5-5-0-0-0-2-2-2-| x2

|-------------------------------------------------|
|-------------------------------------------------|
|-0-0-0-------3-3-3-------------------------------|
|-------5-5-5-------0-0-0-3-3-3-3-3-3-2-2-2-5-5-5-|

Repeat first bar twice again, then:
|-----------------------------------------------------------|
|-----------------------------------------------------------|
|-0-0-0-------3-3-3-----------------------------------------|
|-------5-5-5-------0-0-0-3-3-3-3-3-3-3-3-3-3-3-3-5-5-5-5-5-|

Breakdown (Not sure if it’s a bass)
|-----------------------|
|-14----14----16--------|
|-----------------------|
|-----------------------|

|-----------------------------|
|-------14--------------------|
|-14--------14--16----17--16--|
|-----------------------------| x2

|---------------------|
|-14--------16--------|
|---------------------|
|---------------------|

Then play this until the song ends
|-------------------------------------------------------------------------|
|-------------------------------------------------------------------------|
|-------------------------------------------------------------------------|
|-10-10-10-10-10-10-10-10-10-10-10-10-12-12-12-12-12-12-12-12-12-12-12-12-|

Wow.  Finally done, have fun playing this album.  It's a doozy. :)

Again, leave comments and check back for corrected mistakes.  I will
try to make updates as obvious as necessary so you can find them.
comments
print report bad tab
30 comments total. Showing first comments.
0 reply
pucci6d6 wrote on June 22 2007, 10:48 pm

everything is great except your in pieces tab
i dont think it goes that way, i mean it fits the song your way, so its fine, but im pretty sure my tab for in pieces on ug is right, so u can fix it or not it doesnt matter it sounds fine
5* anyways since u got everything right, i didnt find a mistake, but i wasnt looking to hard anyways, so great job!

0 reply
Bass Pants wrote on June 23 2007, 11:01 am

thank you sir for doing this tab correctly, unlike the other M2M Bass tab

0 reply
JL Sevenfold wrote on June 23 2007, 04:45 pm

no prob, please rate the tab too


by the way bass pants is one hell of a name, makes me laugh ;>

I want to post or [tab]
guest
You may want to rate the tab now too:
select rating
Please do not post tabs as comments. Select "correction" instead!