Oops, an error
Loading. Please wait.

Papercut Tab

6,464 views 3 this week
2 commentsread comments
1 2 3 4 5
accurate
x 5
Autoscroll
+/-
esc
set tempo
stop
Contributor
Hey! There's an official Ultimate Guitar app which is ideal
for learning songs when you're away from computer. Get the app
WARNING: You are trying to view
                                    content from Ultimate-Guitar.com
                                    in an unauthorized application,
                                    which is prohibited.

                                    Please use an official Ultimate
                                    Guitar Tabs application for iPhone,
                                    iPad or Android to access legitimate
                                    chords, guitar, bass, and drum tabs
                                    from Ultimate-Guitar.com database.

                                    Type "ultimate guitar tabs" in Apple
                                    App Store's or Android Market's
                                    search to find the application.
Hey this is Papercut from linin park.
If you think that this us the not the real thing well a got the tab book  and i have
corrected the error in the tab book thanks to live in texas so I know the damn song!

Drop D down one 1/2 step.
Listen to the song in the same time you play it.
Follow my tab all the way to the end.

. = palm mute


Eb|-10---12---13---12---10---12---13---12---10---12---13---12---10---12----|
Bb|---10---10---10---10---10---10---10---10---10---10---10---10---10---10--|
Gb|------------------------------------------------------------------------|
Db|------------------------------------------------------------------------|
Ab|------------------------------------------------------------------------|
Db|------------------------------------------------------------------------|


Eb|-13---12----------------------------------------------------------------|
Bb|---10---10--------------------------------------------------------------|
Gb|------------------------------------------------------------------------|
Db|------------------------------------------------------------------------|
Ab|------------------------------------------------------------------------|
Db|------------------------------------------------------------------------|


Eb|------------------------------------------------------------------------|
Bb|------------------------------------------------------------------------|
Gb|----------10----9-----5--5--5--5----------------------------------------|
Db|-0--0--0--8-----7-----5--5--5--5--1--1--3-------------------------------|
Ab|-0--0--0--8--0--7--0--3--3--3--3--1--1--3-------------------------------|
Db|-0--0--0--8--0--7--0--3--3--3--3--1--1--3-------------------------------|


Eb|------------------------------------------------------------------------|
Bb|------------------------------------------------------------------------|
Gb|----------10----9-----5--5--5--5----------------------------------------|
Db|-0--0--0--8-----7-----5--5--5--5--1--1--3-------------------------------|
Ab|-0--0--0--8--0--7--0--3--3--3--3--1--1--3-------------------------------|
Db|-0--0--0--8--0--7--0--3--3--3--3--1--1--3-------------------------------|


Eb|------------------------------------------------------------------------|
Bb|------------------------------------------------------------------------|
Gb|----------10----9-----5--5--5--5----------------------------------------|
Db|-0--0--0--8-----7-----5--5--5--5--1--1--3-------------------------------|
Ab|-0--0--0--8--0--7--0--3--3--3--3--1--1--3-------------------------------|
Db|-0--0--0--8--0--7--0--3--3--3--3--1--1--3-------------------------------|


Eb|------------------------------------------------------------------------|
Bb|------------------------------------------------------------------------|
Gb|----------10----9-----5--5--5--5----------------------------------------|
Db|-0--0--0--8-----7-----5--5--5--5--1--1--3--0--0--0--8--8--8--8--7--7----|
Ab|-0--0--0--8--0--7--0--3--3--3--3--1--1--3--0--0--0--8--8--8--8--7--7----|
Db|-0--0--0--8--0--7--0--3--3--3--3--1--1--3--0--0--0--8--8--8--8--7--7----|
                                     .  .  .  .  .  .  .  .  .  .  .  .         
Eb|------------------------------------------------------------------------|
Bb|------------------------------------------------------------------------|
Gb|------------------------------------------------------------------------|
Db|-0--0--0---8--8--8--8--7--7-----0--0--0---8--8--8--8--7--7--------------|
Ab|-0--0--0---8--8--8--8--7--7-----0--0--0---8--8--8--8--7--7--------------|
Db|-0--0--0---8--8--8--8--7--7-----0--0--0---8--8--8--8--7--7--------------|
    .  .  .   .  .  .  .  .  .     .  .  .   .  .  .  .  .  .                                    
Eb|------------------------------------------------------------------------|
Bb|------------------------------------------------------------------------|
Gb|------------------------------------------------------------------------|
Db|-0--0--0--8--8--8--8--7--7--1--1--3--0--0--0--8--8--8--8--7--7----------|
Ab|-0--0--0--8--8--8--8--7--7--1--1--3--0--0--0--8--8--8--8--7--7----------|
Db|-0--0--0--8--8--8--8--7--7--1--1--3--0--0--0--8--8--8--8--7--7----------|
    .  .  .  .  .  .  .  .  .  .  .  .  .  .  .  .  .  .  .  .  .                               
Eb|------------------------------------------------------------------------|
Bb|------------------------------------------------------------------------|
Gb|------------------------------------------------------------------------|
Db|-0--0--0---8--8--8--8--7--7---3--3--1--0--0--0---8--8--8--8--7--7-------|
Ab|-0--0--0---8--8--8--8--7--7---3--3--1--0--0--0---8--8--8--8--7--7-------|
Db|-0--0--0---8--8--8--8--7--7---3--3--1--0--0--0---8--8--8--8--7--7-------|
    .  .  .   .  .  .  .  .  .   .  .  .  .  .  .   .  .  .  .  .  .                               
Eb|------------------------------------------------------------------------|
Bb|------------------------------------------------------------------------|
Gb|------------------------------------------------------------------------|
Db|-0--0--0--8--8--8--8--7--7----------------------------------------------|
Ab|-0--0--0--8--8--8--8--7--7----------------------------------------------|
Db|-0--0--0--8--8--8--8--7--7----------------------------------------------|
    .  .  .  .  .  .  .  .  .            


Eb|------------------------------------------------------------------------|
Bb|------------------------------------------------------------------------|
Gb|----------10----9-----5--5--5--5----------------------------------------|
Db|-0--0--0--8-----7-----5--5--5--5--1--1--3-------------------------------|
Ab|-0--0--0--8--0--7--0--3--3--3--3--1--1--3-------------------------------|
Db|-0--0--0--8--0--7--0--3--3--3--3--1--1--3-------------------------------|


Eb|------------------------------------------------------------------------|
Bb|------------------------------------------------------------------------|
Gb|----------10----9-----5--5--5--5----------------------------------------|
Db|-0--0--0--8-----7-----5--5--5--5--1--1--3-------------------------------|
Ab|-0--0--0--8--0--7--0--3--3--3--3--1--1--3-------------------------------|
Db|-0--0--0--8--0--7--0--3--3--3--3--1--1--3-------------------------------|


Eb|------------------------------------------------------------------------|
Bb|------------------------------------------------------------------------|
Gb|----------10----9-----5--5--5--5----------------------------------------|
Db|-0--0--0--8-----7-----5--5--5--5--1--1--3-------------------------------|
Ab|-0--0--0--8--0--7--0--3--3--3--3--1--1--3-------------------------------|
Db|-0--0--0--8--0--7--0--3--3--3--3--1--1--3-------------------------------|


Eb|------------------------------------------------------------------------|
Bb|------------------------------------------------------------------------|
Gb|----------10----9-----5--5--5--5----------------------------------------|
Db|-0--0--0--8-----7-----5--5--5--5--1--1--3--0--0--0--8--8--8--8--7--7----|
Ab|-0--0--0--8--0--7--0--3--3--3--3--1--1--3--0--0--0--8--8--8--8--7--7----|
Db|-0--0--0--8--0--7--0--3--3--3--3--1--1--3--0--0--0--8--8--8--8--7--7----|
                                     .  .  .  .  .  .  .  .  .  .  .  .   

Eb|------------------------------------------------------------------------|
Bb|------------------------------------------------------------------------|
Gb|------------------------------------------------------------------------|
Db|-1--1--3--0--0--0--8--8--8--8--7--7--1--1--3--0--0--0--8--8--8--8--7--7-|
Ab|-1--1--3--0--0--0--8--8--8--8--7--7--1--1--3--0--0--0--8--8--8--8--7--7-|
Db|-1--1--3--0--0--0--8--8--8--8--7--7--1--1--3--0--0--0--8--8--8--8--7--7-|
    .  .  .  .  .  .  .  .  .  .  .  .  .  .  .  .  .  .  .  .  .  .  .  .                     
Eb|------------------------------------------------------------------------|
Bb|------------------------------------------------------------------------|
Gb|------------------------------------------------------------------------|
Db|-1--1--3--0--0--0--8--8--8--8--7--7--1--1--3--0--0--0--8--8--8--8--7--7-|
Ab|-1--1--3--0--0--0--8--8--8--8--7--7--1--1--3--0--0--0--8--8--8--8--7--7-|
Db|-1--1--3--0--0--0--8--8--8--8--7--7--1--1--3--0--0--0--8--8--8--8--7--7-|
    .  .  .  .  .  .  .  .  .  .  .  .  .  .  .  .  .  .  .  .  .  .  .  .            
Eb|------------------------------------------------------------------------|
Bb|------------------------------------------------------------------------|
Gb|------------------------------------------------------------------------|
Db|-0--0--0--8--8--8--8--7--7--1--1--3--0--0--0--8--8--8--8--7--7----------|
Ab|-0--0--0--8--8--8--8--7--7--1--1--3--0--0--0--8--8--8--8--7--7----------|
Db|-0--0--0--8--8--8--8--7--7--1--1--3--0--0--0--8--8--8--8--7--7----------|
    . . . . . . . . . . . . . . . . . . . . . . . . . . . . . . .                                  
Eb|------------------------------------------------------------------------|
Bb|------------------------------------------------------------------------|
Gb|------------------------------------------------------------------------|
Db|-1--1--3--0--0--0--8--8--8--8--7--7-------------------------------------|
Ab|-1--1--3--0--0--0--8--8--8--8--7--7-------------------------------------|
Db|-1--1--3--0--0--0--8--8--8--8--7--7-------------------------------------|
    .  .  .  .  .  .  .  .  .  .  .  .               

Eb|------------------------------------------------------------------------|
Bb|------------------------------------------------------------------------|
Gb|----------10----9-----5--5--5--5----------------------------------------|
Db|-0--0--0--8-----7-----5--5--5--5--1--1--3-------------------------------|
Ab|-0--0--0--8--0--7--0--3--3--3--3--1--1--3-------------------------------|
Db|-0--0--0--8--0--7--0--3--3--3--3--1--1--3-------------------------------|


Eb|------------------------------------------------------------------------|
Bb|------------------------------------------------------------------------|
Gb|----------10----9-----5--5--5--5----------------------------------------|
Db|-0--0--0--8-----7-----5--5--5--5--1--1--3-------------------------------|
Ab|-0--0--0--8--0--7--0--3--3--3--3--1--1--3-------------------------------|
Db|-0--0--0--8--0--7--0--3--3--3--3--1--1--3-------------------------------|


Eb|------------------------------------------------------------------------|
Bb|------------------------------------------------------------------------|
Gb|----------10----9-----5--5--5--5----------------------------------------|
Db|-0--0--0--8-----7-----5--5--5--5--1--1--3-------------------------------|
Ab|-0--0--0--8--0--7--0--3--3--3--3--1--1--3-------------------------------|
Db|-0--0--0--8--0--7--0--3--3--3--3--1--1--3-------------------------------|


Eb|------------------------------------------------------------------------|
Bb|------------------------------------------------------------------------|
Gb|----------10----9-----5--5--5--5----------------------------------------|
Db|-0--0--0--8-----7-----5--5--5--5--1--1--3-------------------------------|
Ab|-0--0--0--8--0--7--0--3--3--3--3--1--1--3-------------------------------|
Db|-0--0--0--8--0--7--0--3--3--3--3--1--1--3-------------------------------|


Eb|------------------------------------------------------------------------|
Bb|------------------------------------------------------------------------|
Gb|----------10----9-----5--5--5--5----------------------------------------|
Db|-0--0--0--8-----7-----5--5--5--5--1--1--3-------------------------------|
Ab|-0--0--0--8--0--7--0--3--3--3--3--1--1--3-------------------------------|
Db|-0--0--0--8--0--7--0--3--3--3--3--1--1--3-------------------------------|


Eb|------------------------------------------------------------------------|
Bb|------------------------------------------------------------------------|
Gb|----------10----9-----5--5--5--5----------------------------------------|
Db|-0--0--0--8-----7-----5--5--5--5--1--1--3-------------------------------|
Ab|-0--0--0--8--0--7--0--3--3--3--3--1--1--3-------------------------------|
Db|-0--0--0--8--0--7--0--3--3--3--3--1--1--3-------------------------------|


Eb|------------------------------------------------------------------------|
Bb|------------------------------------------------------------------------|
Gb|----------10----9-----5--5--5--5----------------------------------------|
Db|-0--0--0--8-----7-----5--5--5--5--1--1--3-------------------------------|
Ab|-0--0--0--8--0--7--0--3--3--3--3--1--1--3-------------------------------|
Db|-0--0--0--8--0--7--0--3--3--3--3--1--1--3-------------------------------|


Eb|------------------------------------------------------------------------|
Bb|------------------------------------------------------------------------|
Gb|----------10----9-----5--5--5--5----------------------------------------|
Db|-0--0--0--8-----7-----5--5--5--5----------------------------------------|
Ab|-0--0--0--8--0--7--0--3--3--3--3----------------------------------------|
Db|-0--0--0--8--0--7--0--3--3--3--3----------------------------------------|
                                                 

Eb|------------------------------------------------------------------------|
Bb|------------------------------------------------------------------------|
Gb|------------------------------------------------------------------------|
Db|-1--1--3--0--0--0-----------1--1--3--0--0--0-----------1--1--3--0--0--0-|
Ab|-1--1--3--0--0--0-----------1--1--3--0--0--0-----------1--1--3--0--0--0-|
Db|-1--1--3--0--0--0-----------1--1--3--0--0--0-----------1--1--3--0--0--0-|
    .  .  .  .  .  .           .  .  .  .  .  .           .  .  .  .  .  .

Eb|------------------------------------------------------------------------|
Bb|------------------------------------------------------------------------|
Gb|------------------------------------------------------------------------|
Db|-1--1--3--0--0--0--0--0--0--0--0--0--0--0--0--0--0--0--0----------------|
Ab|-1--1--3--0--0--0--0--0--0--0--0--0--0--0--0--0--0--0--0----------------|
Db|-1--1--3--0--0--0--0--0--0--0--0--0--0--0--0--0--0--0--0----------------|
    .  .  .  .  .  .  .  .  .  .  .
                                           

Eb|------------------------------------------------------------------------|
Bb|------------------------------------------------------------------------|
Gb|-10--10--10--10--10--10--12--12--12--12--12-----------------------------|
Db|-10--10--10--10--10--10--12--12--12--12--12-----------------------------|
Ab|-8---8---8---8---8---8---10--10--10--10--10-----------------------------|
Db|-8---8---8---8---8---8---10--10--10--10--10-----------------------------|


Eb|------------------------------------------------------------------------|
Bb|------------------------------------------------------------------------|
Gb|-7--7--7--7--7--7--7--7--7--7--7----------------------------------------|
Db|-7--7--7--7--7--7--7--7--7--7--7----------------------------------------|
Ab|-5--5--5--5--5--5--5--5--5--5--5----------------------------------------|
Db|-5--5--5--5--5--5--5--5--5--5--5----------------------------------------|


Eb|------------------------------------------------------------------------|
Bb|------------------------------------------------------------------------|
Gb|-10--10--10--10--10--10--12--12--12--12--12-----------------------------|
Db|-10--10--10--10--10--10--12--12--12--12--12-----------------------------|
Ab|-8---8---8---8---8---8---10--10--10--10--10-----------------------------|
Db|-8---8---8---8---8---8---10--10--10--10--10-----------------------------|


Eb|------------------------------------------------------------------------|
Bb|------------------------------------------------------------------------|
Gb|-7--7--7--7--7--7--7--7--7--7--7----------------------------------------|
Db|-7--7--7--7--7--7--7--7--7--7--7----------------------------------------|
Ab|-5--5--5--5--5--5--5--5--5--5--5----------------------------------------|
Db|-5--5--5--5--5--5--5--5--5--5--5----------------------------------------|


Eb|------------------------------------------------------------------------|
Bb|------------------------------------------------------------------------|
Gb|-10--10--10--10--10--10--12--12--12--12--12-----------------------------|
Db|-10--10--10--10--10--10--12--12--12--12--12-----------------------------|
Ab|-8---8---8---8---8---8---10--10--10--10--10-----------------------------|
Db|-8---8---8---8---8---8---10--10--10--10--10-----------------------------|


Eb|------------------------------------------------------------------------|
Bb|------------------------------------------------------------------------|
Gb|-7--7--7--7--7--7--7--7--7--7--7----------------------------------------|
Db|-7--7--7--7--7--7--7--7--7--7--7----------------------------------------|
Ab|-5--5--5--5--5--5--5--5--5--5--5----------------------------------------|
Db|-5--5--5--5--5--5--5--5--5--5--5----------------------------------------|


Eb|------------------------------------------------------------------------|
Bb|------------------------------------------------------------------------|
Gb|-10--10--10--10--10--10--12--12--12--12--12-----------------------------|
Db|-10--10--10--10--10--10--12--12--12--12--12-----------------------------|
Ab|-8---8---8---8---8---8---10--10--10--10--10-----------------------------|
Db|-8---8---8---8---8---8---10--10--10--10--10-----------------------------|


Eb|------------------------------------------------------------------------|
Bb|------------------------------------------------------------------------|
Gb|-7--7--7--7--7--7--7--7--7--7--7----------------------------------------|
Db|-7--7--7--7--7--7--7--7--7--7--7----------------------------------------|
Ab|-5--5--5--5--5--5--5--5--5--5--5----------------------------------------|
Db|-5--5--5--5--5--5--5--5--5--5--5----------------------------------------|


Eb|------------------------------------------------------------------------|
Bb|------------------------------------------------------------------------|
Gb|-10--10--10--10--10--10--12--12--12--12--12-----------------------------|
Db|-10--10--10--10--10--10--12--12--12--12--12-----------------------------|
Ab|-8---8---8---8---8---8---10--10--10--10--10-----------------------------|
Db|-8---8---8---8---8---8---10--10--10--10--10-----------------------------|


Eb|------------------------------------------------------------------------|
Bb|------------------------------------------------------------------------|
Gb|-7--7--7--7--7--7--7--7--7--7--7----------------------------------------|
Db|-7--7--7--7--7--7--7--7--7--7--7----------------------------------------|
Ab|-5--5--5--5--5--5--5--5--5--5--5----------------------------------------|
Db|-5--5--5--5--5--5--5--5--5--5--5----------------------------------------|


Eb|------------------------------------------------------------------------|
Bb|------------------------------------------------------------------------|
Gb|-10--10--10--10--10--10--12--12--12--12--12-----------------------------|
Db|-10--10--10--10--10--10--12--12--12--12--12-----------------------------|
Ab|-8---8---8---8---8---8---10--10--10--10--10-----------------------------|
Db|-8---8---8---8---8---8---10--10--10--10--10-----------------------------|


Eb|------------------------------------------------------------------------|
Bb|------------------------------------------------------------------------|
Gb|-7--7--7--7--7--7--7--7--7--7--7----------------------------------------|
Db|-7--7--7--7--7--7--7--7--7--7--7----------------------------------------|
Ab|-5--5--5--5--5--5--5--5--5--5--5----------------------------------------|
Db|-5--5--5--5--5--5--5--5--5--5--5----------------------------------------|


Eb|------------------------------------------------------------------------|
Bb|------------------------------------------------------------------------|
Gb|-10--10--10--10--10--10--12--12--12--12--12-----------------------------|
Db|-10--10--10--10--10--10--12--12--12--12--12-----------------------------|
Ab|-8---8---8---8---8---8---10--10--10--10--10-----------------------------|
Db|-8---8---8---8---8---8---10--10--10--10--10-----------------------------|


Eb|------------------------------------------------------------------------|
Bb|------------------------------------------------------------------------|
Gb|-7--7--7--7--7--7--7--7--7--7--7----------------------------------------|
Db|-7--7--7--7--7--7--7--7--7--7--7----------------------------------------|
Ab|-5--5--5--5--5--5--5--5--5--5--5----------------------------------------|
Db|-5--5--5--5--5--5--5--5--5--5--5----------------------------------------|


Eb|------------------------------------------------------------------------|
Bb|------------------------------------------------------------------------|
Gb|-10--10--10--10--10--10--12--12--12--12--12-----------------------------|
Db|-10--10--10--10--10--10--12--12--12--12--12-----------------------------|
Ab|-8---8---8---8---8---8---10--10--10--10--10-----------------------------|
Db|-8---8---8---8---8---8---10--10--10--10--10-----------------------------|


Eb|------------------------------------------------------------------------|
Bb|------------------------------------------------------------------------|
Gb|-10--10--10--10--10--10--12--12--12--12--12-----------------------------|
Db|-10--10--10--10--10--10--12--12--12--12--12-----------------------------|
Ab|-8---8---8---8---8---8---10--10--10--10--10-----------------------------|
Db|-8---8---8---8---8---8---10--10--10--10--10-----------------------------|


Eb|------------------------------------------------------------------------|
Bb|------------------------------------------------------------------------|
Gb|-10--10--10--10--10--10--12--12--12--12--12-----------------------------|
Db|-10--10--10--10--10--10--12--12--12--12--12-----------------------------|
Ab|-8---8---8---8---8---8---10--10--10--10--10-----------------------------|
Db|-8---8---8---8---8---8---10--10--10--10--10-----------------------------|


Eb|------------------------------------------------------------------------|
Bb|------------------------------------------------------------------------|
Gb|-7--7--7--7--7--7--7--7--7--7--7----------------------------------------|
Db|-7--7--7--7--7--7--7--7--7--7--7----------------------------------------|
Ab|-5--5--5--5--5--5--5--5--5--5--5----------------------------------------|
Db|-5--5--5--5--5--5--5--5--5--5--5----------------------------------------|


Eb|------------------------------------------------------------------------|
Bb|------------------------------------------------------------------------|
Gb|------------------------------------------------------------------------|
Db|-1--1--3--0--0--0-------------------------------------------------------|
Ab|-1--1--3--0--0--0-------------------------------------------------------|
Db|-1--1--3--0--0--0-------------------------------------------------------|
    .  .  .  .  .  .          



FINISH!!!!!

It's 100% correct.
If you got comments about my tab this is my e-mail: 

HyperSpace999@hotmail.com

 C YA

Tab by: HybridMan
comments
print report bad tab
2 comments total.
0 reply
PeterPun wrote on July 3 2012, 08:44 am

would be nice, if there would be any checkpoints, so you know where you are.

0 reply
tim nijs wrote on March 24 2013, 11:57 am

it is perfect maybe you can make it shorter like doing in the beginning 10/10/12/10/13/10 and then do like *4

I want to post or [tab]
guest
You may want to rate the tab now too:
select rating
Please do not post tabs as comments. Select "correction" instead!