Oops, an error
Loading. Please wait.

Qwerty Live Tab

ver2
ver2

Whole song

More versions @911Tabs.com
451 views 1 this week
no commentswrite comment
1 2 3 4 5
accurate
x 1
Autoscroll
+/-
esc
set tempo
stop
Contributor
Tuning
C# G# C# F# A# D#
WARNING: You are trying to view
                                    content from Ultimate-Guitar.com
                                    in an unauthorized application,
                                    which is prohibited.

                                    Please use an official Ultimate
                                    Guitar Tabs application for iPhone,
                                    iPad or Android to access legitimate
                                    chords, guitar, bass, and drum tabs
                                    from Ultimate-Guitar.com database.

                                    Type "ultimate guitar tabs" in Apple
                                    App Store's or Android Market's
                                    search to find the application.
 W                   E  S  S S  S S E  S E  S S E   
E||-------------------|--------------------------------|
B||-------------------|--------------------------------|
G||-------------------|--------------------------------|
D||-------------------|--------------------------------|
A||-------------------|--0--1p-0-3p-0-0-7--0-3--2-2-1--|
E||-------------------|--0--1p-0-3p-0-0-7--0-3--2-2-1--|


  E  S  S S  S S E  S E  S S E     E  S  S S  S S E  S E  S S E   
--------------------------------|--------------------------------|
--------------------------------|--------------------------------|
--------------------------------|--------------------------------|
--------------------------------|--------------------------------|
--0--1p-0-3p-0-0-7--0-3--2-2-1--|--0--1p-0-3p-0-0-7--0-3--2-2-1--|
--0--1p-0-3p-0-0-7--0-3--2-2-1--|--0--1p-0-3p-0-0-7--0-3--2-2-1--|


  E  S  S S  S S E  S E  S S E     E  S  S S  S S E  S E  S S E   
--------------------------------|--------------------------------|
--------------------------------|--------------------------------|
--------------------------------|--------------------------------|
--------------------------------|--------------------------------|
--0--1p-0-3p-0-0-7--0-3--2-2-1--|--0--1p-0-3p-0-0-7--0-3--2-2-1--|
--0--1p-0-3p-0-0-7--0-3--2-2-1--|--0--1p-0-3p-0-0-7--0-3--2-2-1--|


  E  S  S S  S S E  S E  S S E     E  S  S S  S S E  S E  S S E   
--------------------------------|--------------------------------|
--------------------------------|--------------------------------|
--------------------------------|--------------------------------|
--------------------------------|--------------------------------|
--0--1p-0-3p-0-0-7--0-3--2-2-1--|--0--1p-0-3p-0-0-7--0-3--2-2-1--|
--0--1p-0-3p-0-0-7--0-3--2-2-1--|--0--1p-0-3p-0-0-7--0-3--2-2-1--|


  E  S  S S  S S E  S E  S S E     E  E  E  E  E  E  E  E   
--------------------------------|--------------------------|
--------------------------------|--------------------------|
--------------------------------|--------------------------|
--------------------------------|--------------------------|
--0--1p-0-3p-0-0-7--0-3--2-2-1--|--0-----0-----0-----0-----|
--0--1p-0-3p-0-0-7--0-3--2-2-1--|--0-----0-----0-----0-----|


  E  E  E  E  E  E  E  E      S  S  S S  S  S S  S  S S  S  S Q     
---------------------------|---------------------------------------|
---------------------------|---------------------------------------|
---------------------------|---------------------------------------|
---------------------------|---------------------------------------|
--0-----0-----0-----0--x\--|---------------------------------------|
--0-----0-----0-----0--x\--|--0-12-13-0-12-13-0-12-13-0-12-13------|


  S  S  S S  S  S S  S  S S  S  S  S  S  S  S  
----------------------------------------------|
----------------------------------------------|
----------------------------------------------|
----------------------------------------------|
----------------------------------------------|
--0-12-13-0-12-13-0-12-13-0-12-13-13-12-10-12-|


  S  S  S S  S  S S  S  S S  S  S Q     
---------------------------------------|
---------------------------------------|
---------------------------------------|
---------------------------------------|
---------------------------------------|
--0-12-13-0-12-13-0-12-13-0-12-13------|


  S  S  S S  S  S S  S  S S  S  S  S  S  S  S  
----------------------------------------------|
----------------------------------------------|
----------------------------------------------|
----------------------------------------------|
----------------------------------------------|
--0-12-13-0-12-13-0-12-13-0-12-13-13-15-13-12-|


  S  S  S S  S  S S  S  S S  S  S Q     
---------------------------------------|
---------------------------------------|
---------------------------------------|
---------------------------------------|
---------------------------------------|
--0-12-13-0-12-13-0-12-13-0-12-13------|


  S  S  S S  S  S S  S  S S  S  S  S  S  S  S  
----------------------------------------------|
----------------------------------------------|
----------------------------------------------|
----------------------------------------------|
----------------------------------------------|
--0-12-13-0-12-13-0-12-13-0-12-13-13-12-10-12-|


  S  S  S S  S  S S  S  S S  S  S Q     
---------------------------------------|
---------------------------------------|
---------------------------------------|
---------------------------------------|
---------------------------------------|
--0-12-13-0-12-13-0-12-13-0-12-13------|


  S  S  S S  S  S S  S  S S  S  S  S  S  S  S  
----------------------------------------------|
----------------------------------------------|
----------------------------------------------|
----------------------------------------------|
----------------------------------------------|
--0-12-13-0-12-13-0-12-13-0-12-13-13-15-13-12-|


  S  S  S S  S  S S  S  S S  S  S Q     
---------------------------------------|
---------------------------------------|
---------------------------------------|
---------------------------------------|
---------------------------------------|
--0-12-13-0-12-13-0-12-13-0-12-13------|


  S  S  S S  S  S S  S  S S  S  S  S  S  S  S  
----------------------------------------------|
----------------------------------------------|
----------------------------------------------|
----------------------------------------------|
----------------------------------------------|
--0-12-13-0-12-13-0-12-13-0-12-13-13-12-10-12-|


  S  S  S S  S  S S  S  S S  S  S Q     
---------------------------------------|
---------------------------------------|
---------------------------------------|
---------------------------------------|
---------------------------------------|
--0-12-13-0-12-13-0-12-13-0-12-13------|


  S  S  S S  S  S S  S  S S  S  S  S  S  S  S    W                 
----------------------------------------------|-------------------|
----------------------------------------------|-------------------|
----------------------------------------------|-------------------|
----------------------------------------------|-------------------|
----------------------------------------------|--8----------------|
--0-12-13-0-12-13-0-12-13-0-12-13-13-15-13-12-|--8----------------|


  H         H           S  S  S S  S  S S  S  S S  S  S Q     
---------------------|---------------------------------------|
---------------------|---------------------------------------|
---------------------|---------------------------------------|
---------------------|---------------------------------------|
--7--------10--------|---------------------------------------|
--7--------10--------|--0-12-13-0-12-13-0-12-13-0-12-13------|


  S  S  S S  S  S S  S  S S  S  S  S  S  S  S    W                 
----------------------------------------------|-------------------|
----------------------------------------------|-------------------|
----------------------------------------------|-------------------|
----------------------------------------------|-------------------|
----------------------------------------------|--8----------------|
--0-12-13-0-12-13-0-12-13-0-12-13-13-15-13-12-|--8----------------|


  H         Q    Q       Q     E  E  E.  E.  E     Q     E  E  Q    Q     
----------------------|-------------------------|------------------------|
----------------------|-------------------------|------------------------|
----------------------|-------------------------|------------------------|
----------------------|-------------------------|------------------------|
--7--------10---------|--0----12--0--7---3---5--|--0----12--0--8----7----|
--7--------10---------|--0----12--0--7---3---5--|--0----12--0--8----7----|


  Q     E  E  E.  E.  E     Q     E  E  S S E  Q        Q     E  E  E.  E.  E   
-------------------------|---------------------------|-------------------------|
-------------------------|---------------------------|-------------------------|
-------------------------|---------------------5b----|-------------------------|
-------------------------|---------------------x-----|-------------------------|
--0----12--0--7---3---5--|--0----12--0--1-1----3b----|--0----12--0--7---3---5--|
--0----12--0--7---3---5--|--0----12--0--1-1----------|--0----12--0--7---3---5--|


  Q     E  E  Q    Q       W                   H        H         
------------------------|-------------------|--------------------|
------------------------|-------------------|--------------------|
------------------------|-------------------|--------------------|
------------------------|-------------------|--------------------|
--0----12--0--8----7----|--5----------------|--8--------1--------|
--0----12--0--8----7----|--5----------------|--8--------1--------|


  E  E  E  E  E  E  E  E     S  S  S S  S  S S  S  S S  S  S Q     
--------------------------|---------------------------------------|
--------------------------|---------------------------------------|
--------------------------|---------------------------------------|
--------------------------|---------------------------------------|
--0-----0-----0-----0-----|---------------------------------------|
--0-----0-----0-----0-----|--0-12-13-0-12-13-0-12-13-0-12-13------|


  S  S  S S  S  S S  S  S S  S  S  S  S  S  S  
----------------------------------------------|
----------------------------------------------|
----------------------------------------------|
----------------------------------------------|
----------------------------------------------|
--0-12-13-0-12-13-0-12-13-0-12-13-13-12-10-12-|


  S  S  S S  S  S S  S  S S  S  S Q     
---------------------------------------|
---------------------------------------|
---------------------------------------|
---------------------------------------|
---------------------------------------|
--0-12-13-0-12-13-0-12-13-0-12-13------|


  S  S  S S  S  S S  S  S S  S  S  S  S  S  S  
----------------------------------------------|
----------------------------------------------|
----------------------------------------------|
----------------------------------------------|
----------------------------------------------|
--0-12-13-0-12-13-0-12-13-0-12-13-13-15-13-12-|


  S  S  S S  S  S S  S  S S  S  S Q     
---------------------------------------|
---------------------------------------|
---------------------------------------|
---------------------------------------|
---------------------------------------|
--0-12-13-0-12-13-0-12-13-0-12-13------|


  S  S  S S  S  S S  S  S S  S  S  S  S  S  S  
----------------------------------------------|
----------------------------------------------|
----------------------------------------------|
----------------------------------------------|
----------------------------------------------|
--0-12-13-0-12-13-0-12-13-0-12-13-13-12-10-12-|


  S  S  S S  S  S S  S  S S  S  S Q     
---------------------------------------|
---------------------------------------|
---------------------------------------|
---------------------------------------|
---------------------------------------|
--0-12-13-0-12-13-0-12-13-0-12-13------|


  S  S  S S  S  S S  S  S S  S  S  S  S  S  S    W                 
----------------------------------------------|-------------------|
----------------------------------------------|-------------------|
----------------------------------------------|-------------------|
----------------------------------------------|-------------------|
----------------------------------------------|--8----------------|
--0-12-13-0-12-13-0-12-13-0-12-13-13-15-13-12-|--8----------------|


  H         Q    Q       Q     E  E  E.  E.  E     Q     E  E  Q    Q     
----------------------|-------------------------|------------------------|
----------------------|-------------------------|------------------------|
----------------------|-------------------------|------------------------|
----------------------|-------------------------|------------------------|
--7--------10---------|--0----12--0--7---3---5--|--0----12--0--8----7----|
--7--------10---------|--0----12--0--7---3---5--|--0----12--0--8----7----|


  Q     E  E  E.  E.  E     Q     E  E  S S E  Q        Q     E  E  E.  E.  E   
-------------------------|---------------------------|-------------------------|
-------------------------|---------------------------|-------------------------|
-------------------------|---------------------5b----|-------------------------|
-------------------------|---------------------x-----|-------------------------|
--0----12--0--7---3---5--|--0----12--0--1-1----3b----|--0----12--0--7---3---5--|
--0----12--0--7---3---5--|--0----12--0--1-1----------|--0----12--0--7---3---5--|


  Q     E  E  Q    Q       W                   H        H         
------------------------|-------------------|--------------------|
------------------------|-------------------|--------------------|
------------------------|-------------------|--------------------|
------------------------|-------------------|--------------------|
--0----12--0--8----7----|--5----------------|--8--------1--------|
--0----12--0--8----7----|--5----------------|--8--------1--------|


  E  E  E  E  E  E  S S S S    E  S  S S  S S E  S E  S S E   
----------------------------|--------------------------------|
----------------------------|--------------------------------|
----------------------------|--------------------------------|
--------------------x-x-x-x-|--------------------------------|
--0-----0-----0-----x-x-x-x-|--0--1p-0-3p-0-0-7--0-3--2-2-1--|
--0-----0-----0-----x-x-x-x-|--0--1p-0-3p-0-0-7--0-3--2-2-1--|


  E  S  S S  S S E  S E  S S E     E  S  S S  S S E  S E  S S E   
--------------------------------|--------------------------------|
--------------------------------|--------------------------------|
--------------------------------|--------------------------------|
--------------------------------|--------------------------------|
--0--1p-0-3p-0-0-7--0-3--2-2-1--|--0--1p-0-3p-0-0-7--0-3--2-2-1--|
--0--1p-0-3p-0-0-7--0-3--2-2-1--|--0--1p-0-3p-0-0-7--0-3--2-2-1--|


  E  S  S S  S S E  S E  S S E     E  S  S S  S S E  S E  S S E   
--------------------------------|--------------------------------|
--------------------------------|--------------------------------|
--------------------------------|--------------------------------|
--------------------------------|--------------------------------|
--0--1p-0-3p-0-0-7--0-3--2-2-1--|--0--1p-0-3p-0-0-7--0-3--2-2-1--|
--0--1p-0-3p-0-0-7--0-3--2-2-1--|--0--1p-0-3p-0-0-7--0-3--2-2-1--|


  E  S  S S  S S E  S E  S S E     E  S  S S  S S E  S E  S S E   
--------------------------------|--------------------------------|
--------------------------------|--------------------------------|
--------------------------------|--------------------------------|
--------------------------------|--------------------------------|
--0--1p-0-3p-0-0-7--0-3--2-2-1--|--0--1p-0-3p-0-0-7--0-3--2-2-1--|
--0--1p-0-3p-0-0-7--0-3--2-2-1--|--0--1p-0-3p-0-0-7--0-3--2-2-1--|


  E  S  S S  S S E  S E  S S E     W                   H         H         
--------------------------------|-------------------|---------------------|
--------------------------------|-------------------|---------------------|
--------------------------------|-------------------|---------------------|
--------------------------------|-------------------|---------------------|
--0--1p-0-3p-0-0-7--0-3--2-2-1--|--8----------------|--7--------10--------|
--0--1p-0-3p-0-0-7--0-3--2-2-1--|--8----------------|--7--------10--------|


  E  S  S S  S S E  S E  S S E     E  S  S S  S S E  S E  S S E   
--------------------------------|--------------------------------|
--------------------------------|--------------------------------|
--------------------------------|--------------------------------|
--------------------------------|--------------------------------|
--0--1p-0-3p-0-0-7--0-3--2-2-1--|--0--1p-0-3p-0-0-7--0-3--2-2-1--|
--0--1p-0-3p-0-0-7--0-3--2-2-1--|--0--1p-0-3p-0-0-7--0-3--2-2-1--|


  W                   H         H           W                 
-------------------|---------------------|-------------------|
-------------------|---------------------|-------------------|
-------------------|---------------------|-------------------|
-------------------|---------------------|--0----------------|
--8----------------|--7--------10--------|--0----------------|
--8----------------|--7--------10--------|--0----------------|


  W                   W                   W                   W                 
-------------------|-------------------|-------------------|-------------------|
-------------------|-------------------|-------------------|-------------------|
-------------------|-------------------|-------------------|-------------------|
--L----------------|--L----------------|--L----------------|--0----------------|
--L----------------|--L----------------|--L----------------|--0----------------|
--L----------------|--L----------------|--L----------------|--0----------------|


  W                   W                   H        Q    Q      
-------------------|-------------------|----------------------|
-------------------|-------------------|----------------------|
-------------------|-------------------|----------------5b----|
--L----------------|--L----------------|--L-------------x-----|
--L----------------|--L----------------|--L--------L----3b----|
--L----------------|--L----------------|--L--------L----------|


  Q     E  E  E.  E.  E     Q     E  E  Q    Q       Q     E  E  E.  E.  E   
-------------------------|------------------------|-------------------------|
-------------------------|------------------------|-------------------------|
-------------------------|------------------------|-------------------------|
-------------------------|------------------------|-------------------------|
--0----12--0--7---3---5--|--0----12--0--8----7----|--0----12--0--7---3---5--|
--0----12--0--7---3---5--|--0----12--0--8----7----|--0----12--0--7---3---5--|


  Q     E  E  S S E  Q        Q     E  E  E.  E.  E     Q     E  E  Q    Q     
---------------------------|-------------------------|------------------------|
---------------------------|-------------------------|------------------------|
---------------------5b----|-------------------------|------------------------|
---------------------x-----|-------------------------|------------------------|
--0----12--0--1-1----3b----|--0----12--0--7---3---5--|--0----12--0--8----7----|
--0----12--0--1-1----------|--0----12--0--7---3---5--|--0----12--0--8----7----|


  W                   H        H           S S S S S S S S S S S S S S S S  
-------------------|--------------------|----------------------------------|
-------------------|--------------------|----------------------------------|
-------------------|--------------------|----------------------------------|
-------------------|--------------------|----------------------------------|
--5----------------|--8--------1--------|--0-0-0-0-0-0-0-0-0-0-0-0-0-0-0-0-|
--5----------------|--8--------1--------|--0-0-0-0-0-0-0-0-0-0-0-0-0-0-0-0-|


  E  E  Q    H          
----------------------||
----------------------||
----------------------||
----------------------||
--0-------------------||
--0-------------------||




Duration Legend
---------------
W - whole
H - half
Q - quarter
E - 8th
S - 16th



Tablature Legend
----------------
L - tied note
x - dead note
h - hammer on
p - pull off
b - bend
/ -  slide into from below or out of upwards
\ -  slide into from above or out of downwards

comments
We did not receive enough feedback on this tab! Please rate:
print report bad tab
1 2 3 4 5
I want to post or [tab]
guest
You may want to rate the tab now too:
select rating
Please do not post tabs as comments. Select "correction" instead!