Oops, an error
Loading. Please wait.

Shadow Of The Day Acoustic Tab

ver2
ver2

Whole song

More versions @911Tabs.com
9,722 views 6 this week
2 commentsread comments
1 2 3 4 5
excellent!
x 2
add to favorites launch autoscroll
font size
0
reset
Autoscroll
+/-
esc
set tempo
stop
Contributor
WARNING: You are trying to view
                                    content from Ultimate-Guitar.com
                                    in an unauthorized application,
                                    which is prohibited.

                                    Please use an official Ultimate
                                    Guitar Tabs application for iPhone,
                                    iPad or Android to access legitimate
                                    chords, guitar, bass, and drum tabs
                                    from Ultimate-Guitar.com database.

                                    Type "ultimate guitar tabs" in Apple
                                    App Store's or Android Market's
                                    search to find the application.
This is my first arrangment, hope you like it.

Gtr I Standard Tuning (E A D G B E) Capo 5th
Gtr II Open C Tuning (C G C G C E) No capo

   Intro
   4/4
    Gtr I
    W          W          W          +W
||--3--------|-2--------|-0--------|-(0)-----||
||o-3--------|-3--------|-3--------|-(3)----o||
||--0--------|-2--------|-0--------|-(0)-----||
||--0--------|-0--------|-2--------|-(2)-----||
||o-2--------|-0--------|-3--------|-(3)----o||
||--0--------|-2--------|----------|---------||
|
|   Gtr II
|   W          W          W          +W
||--0--------|----------|-0--------|-(0)-----||
||o-0--------|-0--------|-0--------|-(0)----o||
||--9--------|-2--------|-5--------|-(5)-----||
||--0--------|-2--------|-0--------|-(0)-----||
||o-9--------|-0--------|-5--------|-(5)----o||
||--9--------|-2--------|-5--------|-(5)-----||


 Verse
 4/4
  Gtr I
  E E E  E  E E E E   E E E E E E E E    E  E E E E E E E   E E E E E E E E
|-----------3---3---|-2-----0-2---3-0-|-(0)---------------|---0--------------|
|-----3-(3)---3---3-|---3---3---3---3-|-----3---3-----3---|-----3---3-----3--|
|---0----0------0---|-----2-----------|-------0-----0---0-|-------0----------|
|-----0-------------|-----------------|-------2-------2---|---2---------2----|
|---2---------5-2---|-0-------0---0---|--3--------3-------|-3---------3------|
|-0---------0-------|-2-------2-------|--3----------------|------------------|
|
| Gtr II
| W                   W                  W                  W
|-------------------|-----------------|-------------------|------------------|
|-------------------|-----------------|-------------------|------------------|
|-9-----------------|-7---------------|--5----------------|-5----------------|
|-0-----------------|-0---------------|--0----------------|-0----------------|
|-9-----------------|-7---------------|--5----------------|-5----------------|
|-9-----------------|-7---------------|--5----------------|-5----------------|


  E E E E E E E E   E E E E E E E E    E  E E E E E E E   E E E E E E E E
|---------3---3---|-2-----0-2---3-3-|-(3)---------------|---3-------------|
|-----3-----3---3-|---3---3---3---3-|-----3---3-----3---|-----3---3-----3-|
|---0---0-----0---|-----2-----------|-------0-----0---0-|-------0---------|
|---2---0---------|---4---------0-5-|-----2---------2---|---2---------2---|
|-----------2-----|-0-------0-------|--3--------3-------|-3---------3-----|
|-0-------0-------|-2-------2-------|---------3---------|-3---------------|
|
| E E E E E E E E   E E E E E E E E    E  E E E E E E E   E E E E E E E E
|-----------------|-0---------------|-----------0-------|-----------------|
|---------------0-|-0-7-------------|---------5---0-----|-----------5-----|
|-----------9---9-|-----0---7-------|--0----0-------5---|---------0-------|
|-----9---0---0---|-------7---0-----|-----5-----------5-|---5---0-----0---|
|---0---9---------|-------------7-0-|--5----------------|-----5---5-----5-|
|-9---------------|-7---------------|--5----------------|-5-------------5-|


  Gtr I
  E  E E E E E E E   E  E E E E E E E    E  E E E E E E E   E E E E E E E E
|----------3---3---|-2------0-2---3-0-|-(0)---------------|---0-------------|
|------3-----3---3-|----3---3---3---3-|-----3---3-----3---|-----3---3-----3-|
|----0---0-0---0---|------2-----------|-------0-----0---0-|-------0---------|
|--------0-----2---|------2-------5---|-----2-----------2-|---2---------2---|
|------2-----------|-0--------0-------|--3--------3-------|-3---------3-----|
|-0--------0-------|-2--------2-------|-------------------|-----------------|
|
| Gtr II
| ~~                 ~~                  ~~~
| H.           E E   H.           E E    H        E E E E   E E E E E E E E
|-0----------------|-0----------------|--0----------------|-0---------------|
|-0----------------|-0----------------|--0----------------|-0-------------0-|
|-9--------------0-|-7----------------|--5----------------|-5---------0-5---|
|-0------------0---|-0--------------0-|--0--------------0-|-----0---5-------|
|-9------------9-9-|-7------------7-7-|--5----------0-5---|---5---5---------|
|-9--------------9-|-7------------7---|--5--------5-------|-5---------------|


  E E E E E E E E   E E E E E E E E    E  E E E E E E E   E E E E E E E E
|---------3---3---|-2-----0-2---3-3-|-(3)---------3-5-3-|-------------3-5-|
|-----3-----3---3-|---3---3---3---3-|-----3---3-----3---|-----3---3-----3-|
|---0---0-----0---|-----2-----------|-------0-----0---0-|---0---0---------|
|---------0-2-----|-------------0---|-------2-----------|-------------2---|
|---2-------------|-0---5---0-------|--3--------3-------|-3---------3-----|
|-0-------0-------|-2-------2-------|-----3-------------|-----------------|
|
| E E E E E E E E   E E E E E E E E    E  E E E E E E E   E E E E E E E E
|-----------------|-----------------|-------------------|-----------------|
|-----------------|-----------------|-------------------|-----------------|
|-----7---9---9---|-7---7---7---5---|--9----9---9---9---|-5-----5-------5-|
|---0---0---0---0-|---0-------0---0-|-----0---0---0---0-|-0---0---0---0---|
|---------9-----9-|-------0-----7---|-------5---0-----5-|---5-------5-----|
|-9---9-------9---|-7-----------7---|--5------5---5-----|-5-----5---5-----|


 Pre-Chorus
  E E E E E E E E   E E  E  E E E E E    E  E E E E E E E   E E E E E E E E
|-7-------7-----7-|---5-------3---5-7-|-(7)-------7-------|-------------3-5-|
|---0---0---0---0-|---0-----0---0---0-|-----0---0---0---0-|-3-------3-------|
|---4-0-------0---|-0----0--------0---|-------0-------0---|---0---0---0---0-|
|---------5-------|---2-(2)-------2---|-----0---2-5-------|-----2-------2---|
|-----5-------5-2-|-0---------0-4-----|-------2-------2---|-3-------3-------|
|-3-------3-------|-------------------|--0--------0-------|-----------------|
|
| E E E E E E E E   E E  E  E E E E E    E  E E E E E E E   E E E E E E E E
|-0---------------|-0-----------------|-------------------|-----------------|
|-0---------------|-0-----------------|-------------------|-5---------------|
|-9---9---9---9---|-7----7----5---7-9-|--9----9---9---9---|-0-------5-------|
|-0-0-------0---0-|-0-0-----0-------0-|--9--9---0-----0-0-|-5-5---0---5---0-|
|-9-----0-----9-0-|-2-2---------2---0-|-------0-----9-----|-0---5-----0-5---|
|-0-0-------0-----|-2-------2---------|--9--------9-------|-5---------------|


  E E  E  E E E E E    E  E  E  E E E E E   E E E E E E E E   E E E E E E E E
|-7---------7-----7-|-(7)-5-------3---5---|-3-------3-------|-------------3-5-|
|---------0---0---0-|-----0-----0---0---0-|---0---0---0---0-|-3-------3-------|
|---4--0--------0---|--------0--------0---|-----0-------0---|---0---0---0---0-|
|---------------5---|--------2------2-----|---0-------------|-----2-------2---|
|------5------------|--0--------4-0-------|-----2-------2---|-3-------3-------|
|-3---------3-------|---------------------|-0-------0-------|-----------------|
|
| E E  E  E E E E E    E  E  E  E E E E E   E E E E E E E E   E E E E E E E E
|-0-----------------|---------------------|-----------------|-0---------------|
|-0-----------------|---------------------|-----------------|-5---------------|
|-9----9----9-----9-|-(9)-7-(7)-----7-9---|-5-------5-------|-0---0-5-------0-|
|-0-0-----0---0-----|--0--0-------0-----0-|-0-0---9---9---0-|-5---5---7---9---|
|-9-0-(0)-0---0-0---|--2-----2------0-0---|-9---7-------0---|-5-5-------0-----|
|-0-0-------0-------|--2--------2-----2---|-9-----------9---|-5---------------|


 Chorus
   E E E  E  E E E E    E  E E E E E E E
|-10-----10-10---7-5-|-(5)-------3---5---|
|----0----0----0---0-|-----0---0---0---0-|
|--7---0-------------|-------0-------0---|
|------9---------9---|-----2---------2---|
|-10--------10-------|--5--------5-------|
|--------------------|-------------------|
|
|  E E E  E  E E E E    E  E E E E E E E
|--------------------|-------------------|
|--------------------|-------------------|
|-12-----12-12---9-7-|-(7)-------5---7---|
|--0-0----0----0-----|-----0-2-----0---0-|
|--0---0---------0---|-----2---0---------|
|--0---------0-----0-|--2----------------|


   E E E  E  E E E E    E  E E E E E E E
|-10-----10-10---7-5-|-(5)-------3---5---|
|----0----0----0---0-|-----0---0---0---0-|
|------0-------------|-------0-----------|
|--------------------|-------2-------2---|
|------7---------7---|--3--------3-------|
|--0---------0-------|-------------------|
|
|  E E E  E  E E E E    E  E E E E E E E
|--------------------|-------------------|
|--------------------|-------------------|
|-12-----12-12---9-7-|-(7)-------5---7---|
|----0---------0-----|-----0---0---0---0-|
|------0-------------|-------0-----------|
|--9---9-----9-9---9-|--5------5---5-5---|


  E E  E  E E E E E    E  E  E  E E E E E
|-7---------7-----7-|-(7)-5-------3---5-3-|
|---0-----0---0---0-|-----0-----0---0---0-|
|------0--------7---|--------0--------0---|
|---7-----5---------|-----4-------2-------|
|-------------------|--0----------0-------|
|-3---------3-------|---------------------|
|
| E E  E  E E E E E    E  E  E  E E E E E
|-0-----------------|---------------------|
|-0-----------------|---------------------|
|-9----9----9-----9-|-(9)-7-(7)-----7-9---|
|-0-0-----0---0-----|--0--0-------0-----0-|
|-9-0-(0)-0---0-0---|--2-----2------0-0---|
|-0-0-------0-------|--2--------2-----2---|


   E  E E E E E E E   E E E E E E E E
|-(3)-------3-------|-----------------|
|-----0---0---0---0-|-3-------3-------|
|-------2-------0---|---0---0---0---0-|
|-----0-----0-------|-----2-------2---|
|---------------5---|-3-------3-------|
|--0--------0-------|-----------------|
|
|  E  E E E E E E E   E E E E E E E E
|-------------------|-0---------------|
|-------------------|-5---------------|
|--5--------5-------|-0---0-5-------0-|
|--0--0---9---9---0-|-5---5---7---9---|
|--9----7-------0---|-5-5-------0-----|
|--9------------9---|-5---------------|


 Bridge
  E E E E E E E S S    E E E E E E E  E   E E E E E E E E   E E E E E E E E
|-3-----------3------|-2----------------|-3---------------|-0-----------0---|
|-3-3---3---3---3h5--|-3-3-------3---/1-|-3-----3-------3-|-3---------3---3-|
|-0---0--------------|-2---2---2---2--2-|-0-------0---0---|-0---0---0-------|
|-2-------0----------|-0-----0-----4----|-2---2-----2-----|-2-----2---------|
|-2-----2------------|-0----------------|-3-3-------------|-3-3-------------|
|-0------------------|-2----------------|-3---------------|-3---------------|


 Verse
  E E E E E E E E   E E E E E E E E    E  E E E E E E E   E E E E E E E E
|---------3---3---|-2-----0-2---3-0-|-(0)---------------|---0-------------|
|-----3-----3---3-|---3---3---3---3-|-----3---3-----3---|-----3---3-----3-|
|---0---0-----0---|-----2-----------|-------0-----0---0-|-------0---------|
|---2---0---------|---4---------0-5-|-----2---------2---|---2---------2---|
|-----------2-----|-0-------0-------|--3--------3-------|-3---------3-----|
|-0-------0-------|-2-------2-------|---------3---------|-3---------------|
|
| W                 W                  W                  W
|-----------------|-----------------|-------------------|-----------------|
|-----------------|-----------------|-------------------|-----------------|
|-9---------------|-7---------------|--5----------------|-5---------------|
|-0---------------|-0---------------|--0----------------|-0---------------|
|-9---------------|-7---------------|--5----------------|-5---------------|
|-9---------------|-7---------------|--5----------------|-5---------------|


  E E E E E E E E   E E E E E E E E    E  E E E E E E E   E E E E E E E E
|---------3---3---|-2-----0-2---3-3-|-(3)---------------|---3-------------|
|-----3-----3---3-|---3---3---3---3-|-----3---3-----3---|-----3---3-----3-|
|---0---0-----0---|-----2-----------|-------0-----0---0-|-------0---------|
|---2---0---------|---4---------0-5-|-----2---------2---|---2---------2---|
|-----------2-----|-0-------0-------|--3--------3-------|-3---------3-----|
|-0-------0-------|-2-------2-------|---------3---------|-3---------------|
|
| E E E E E E E E   E E E E E E E E    E  E E E E E E E   E E E E E E E E
|-----------------|-0---------------|-----------0-------|-----------------|
|---------------0-|-0---------------|---------5---0-----|-----------5-----|
|---------5---5---|-4-----2-4---5-5-|-(5)---0-------5---|---------0-------|
|-----9---0-9-0---|---0---7---0-----|-----5-----------5-|---5---0-----0---|
|---0---9---------|-----7-------7-0-|--5----------------|-----5---5-----5-|
|-9---------------|-7---------------|--5----------------|-5-------------5-|


  E  E E E E E E E   E  E E E E E E E    E  E E E E E E E   E E E E E E E E
|----------3---3---|-2------0-2---3-0-|-(0)---------------|---0-------------|
|------3-----3---3-|----3---3---3---3-|-----3---3-----3---|-----3---3-----3-|
|----0---0-0---0---|------2-----------|-------0-----0---0-|-------0---------|
|--------0-----2---|------2-------5---|-----2-----------2-|---2---------2---|
|------2-----------|-0--------0-------|--3--------3-------|-3---------3-----|
|-0--------0-------|-2--------2-------|-------------------|-----------------|
|
| ~~                 ~~                  ~~~
| H.           E E   H.           E E    H        E E E E   E E E E E E E E
|-0----------------|-0----------------|--0----------------|-0---------------|
|-0----------------|-0----------------|--0----------------|-0-------------0-|
|-9--------------0-|-7----------------|--5----------------|-5---------0-5---|
|-0------------0---|-0--------------0-|--0--------------0-|-----0---5-------|
|-9------------9-9-|-7------------7-7-|--5----------0-5---|---5---5---------|
|-9--------------9-|-7------------7---|--5--------5-------|-5---------------|


  E E E E E E E E   E E E E E E E E    E  E E E E E E E   E E E E E E E E
|---------3---3---|-5-----3-7---5-3-|-(3)---------3-5-3-|-------------3-5-|
|-----3-----3---3-|---3---3---3---3-|-----3---3-----3---|-----3---3-----3-|
|---0---0-----0---|-----2-----------|-------0-----0---0-|---0---0---------|
|---------0-2-----|-------------0---|-------2-----------|-------------2---|
|---2-------------|-0---5---0-------|--3--------3-------|-3---------3-----|
|-0-------0-------|-2-------2-------|-----3-------------|-----------------|
|
| E E E E E E E E   E E E E E E E E    E  E E E E E E E   E E E E E E E E
|-----------------|-----------------|-------------------|-----------------|
|-----------------|-----------------|-------------------|-----------------|
|-----7---9---9---|-7---7---7---5---|--9----9---9---9---|-5-----5-------5-|
|---0---0---0---0-|---0-------0---0-|-----0---0---0---0-|-0---0---0---0---|
|---------9-----9-|-------0-----7---|-------5---0-----5-|---5-------5-----|
|-9---9-------9---|-7-----------7---|--5------5---5-----|-5-----5---5-----|


 Pre-Chorus
  E E E E E E E E   E E  E  E E E E E    E  E E E E E E E   E E E E E E E E
|-7-------7-----7-|---5-------3---5-7-|-(7)-------7-------|-------------3-5-|
|---0---0---0---0-|---0-----0---0---0-|-----0---0---0---0-|-3-------3-------|
|---4-0-------0---|-0----0--------0---|-------0-------0---|---0---0---0---0-|
|---------5-------|---2-(2)-------2---|-----0---2-5-------|-----2-------2---|
|-----5-------5-2-|-0---------0-4-----|-------2-------2---|-3-------3-------|
|-3-------3-------|-------------------|--0--------0-------|-----------------|
|
| E E E E E E E E   E E  E  E E E E E    E  E E E E E E E   E E E E E E E E
|-0---------------|-0-----------------|-------------------|-----------------|
|-0---------------|-0-----------------|-------------------|-5---------------|
|-9---9---9---9---|-7----7----5---7-9-|--9----9---9---9---|-0-------5-------|
|-0-0-------0---0-|-0-0-----0-------0-|--9--9---0-----0-0-|-5-5---0---5---0-|
|-9-----0-----9-0-|-2-2---------2---0-|-------0-----9-----|-0---5-----0-5---|
|-0-0-------0-----|-2-------2---------|--9--------9-------|-5---------------|


  E E  E  E E E E E    E  E  E  E E E E E   E E E E E E E E   E E E E E E E E
|-7---------7-----7-|-(7)-5-------3---5---|-3-------3-------|-------------3-5-|
|---------0---0---0-|-----0-----0---0---0-|---0---0---0---0-|-3-------3-------|
|---4--0--------0---|--------0--------0---|-----0-------0---|---0---0---0---0-|
|---------------5---|--------2------2-----|---0-------------|-----2-------2---|
|------5------------|--0--------4-0-------|-----2-------2---|-3-------3-------|
|-3---------3-------|---------------------|-0-------0-------|-----------------|
|
| E E  E  E E E E E    E  E  E  E E E E E   E E E E E E E E   E E E E E E E E
|-0-----------------|---------------------|-----------------|-0---------------|
|-0-----------------|---------------------|-----------------|-5---------------|
|-9----9----9-----9-|-(9)-7-(7)-----7-9---|-5-------5-------|-0---0-5-------0-|
|-0-0-----0---0-----|--0--0-------0-----0-|-0-0---9---9---0-|-5---5---7---9---|
|-9-0-(0)-0---0-0---|--2-----2------0-0---|-9---7-------0---|-5-5-------0-----|
|-0-0-------0-------|--2--------2-----2---|-9-----------9---|-5---------------|


 Chorus
   E E E  E  E E E E    E  E E E E E E E
|-10-----10-10---7-5-|-(5)-------3---5---|
|----0----0----0---0-|-----0---0---0---0-|
|--7---0-------------|-------0-------0---|
|------9---------9---|-----2---------2---|
|-10--------10-------|--5--------5-------|
|--------------------|-------------------|
|
|  E E E  E  E E E E    E  E E E E E E E
|--------------------|-------------------|
|--------------------|-------------------|
|-12-----12-12---9-7-|-(7)-------5---7---|
|--0-0----0----0-----|-----0-2-----0---0-|
|--0---0---------0---|-----2---0---------|
|--0---------0-----0-|--2----------------|


   E E E  E  E E E E    E  E E E E E E E
|-10-----10-10---7-5-|-(5)-------3---5---|
|----0----0----0---0-|-----0---0---0---0-|
|------0-------------|-------0-----------|
|--------------------|-------2-------2---|
|------7---------7---|--3--------3-------|
|--0---------0-------|-------------------|
|
|  E E E  E  E E E E    E  E E E E E E E
|--------------------|-------------------|
|--------------------|-------------------|
|-12-----12-12---9-7-|-(7)-------5---7---|
|----0---------0-----|-----0---0---0---0-|
|------0-------------|-------0-----------|
|--9---9-----9-9---9-|--5------5---5-5---|


  E E  E  E E E E E    E  E  E  E E E E E    E  E E E E E E E   W
|-7---------7-----7-|-(7)-5-------3---5-3-|-(3)-------3-------|-3----|
|---0-----0---0---0-|-----0-----0---0---0-|-----0---0---0---0-|-3----|
|------0--------7---|--------0--------0---|-------2-------0---|-0----|
|---7-----5---------|-----4-------2-------|-----0-----0-------|-2----|
|-------------------|--0----------0-------|---------------5---|-3----|
|-3---------3-------|---------------------|--0--------0-------|-3----|
|
| E E  E  E E E E E    E  E  E  E E E E E    E  E E E E E E E   W
|-0-----------------|---------------------|-------------------|-0----|
|-0-----------------|---------------------|-------------------|-5----|
|-9----9----9-----9-|-(9)-7-(7)-----7-9---|--5--------5-------|-0----|
|-0-0-----0---0-----|--0--0-------0-----0-|--0--0---9---9---0-|-5----|
|-9-0-(0)-0---0-0---|--2-----2------0-0---|--9----7-------0---|-5----|
|-0-0-------0-------|--2--------2-----2---|--9------------9---|-5----|


Duration Legend
---------------
W - whole; H - half; Q - quarter; E - 8th; S - 16th; T - 32nd; X - 64th; a - acciaccatura
+ - note tied to previous; . - note dotted; .. - note double dotted
Uncapitalized letters represent notes that are staccato (1/2 duration)
Irregular groupings are notated above the duration line
Duration letters will always appear directly above the note/fret number it represents the
duration for.  Duration letters with no fret number below them represent rests.  Multi-
bar rests are notated in the form Wxn, where n is the number of bars to rest for.  Low
melody durations appear below the staff

Tablature Legend
----------------
 h   - hammer-on
 p   - pull-off
 b   - bend
 pb  - pre-bend
 r   - bend release (if no number after the r, then release immediately)
 /\  - slide into or out of (from/to "nowhere")
 s   - legato slide
 S   - shift slide
  - natural harmonic
[n]  - artificial harmonic
n(n) - tapped harmonic
 ~   - vibrato
 tr  - trill
 T   - tap
 TP  - trem. picking
 PM  - palm muting
\n/  - tremolo bar dip; n = amount to dip
 \n  - tremolo bar down
 n/  - tremolo bar up
/n\  - tremolo bar inverted dip
 =   - hold bend; also acts as connecting device for hammers/pulls
 <>  - volume swell (louder/softer)
 x   - on rhythm slash represents muted slash
 o   - on rhythm slash represents single note slash

Misc Legend
-----------
 |  - bar
||  - double bar
||o - repeat start
o|| - repeat end
*|  - double bar (ending)
 :  - bar (freetime)
 $  - Segno
 &  - Coda
Tempo markers -  = BPM(8/16=s8/s16), where s8 = swing 8ths, s16 = swing 16ths
comments
We did not receive enough feedback on this tab! Please rate:
1 2 3 4 5
2 comments total.
+1 reply
Tomozaurus wrote on August 4 2009, 06:48 pm

Wow... pretty awesome.

0 reply
Maxxxim888 wrote on March 13 2011, 09:05 am

Thanks :D

I want to post or [tab]
guest
You may want to rate the tab now too:
select rating
Please do not post tabs as comments. Select "correction" instead!