Oops, an error
Loading. Please wait.

So Far Away Tab

266 views 1 this week
no commentswrite comment
1 2 3 4 5
please rate
Autoscroll
+/-
esc
set tempo
stop
Contributor
Difficulty
Tuning
intermediate
D# G# C# F# A# D#
Hey! There's an official Ultimate Guitar app which is ideal
for learning songs when you're away from computer. Get the app
WARNING: You are trying to view
                                    content from Ultimate-Guitar.com
                                    in an unauthorized application,
                                    which is prohibited.

                                    Please use an official Ultimate
                                    Guitar Tabs application for iPhone,
                                    iPad or Android to access legitimate
                                    chords, guitar, bass, and drum tabs
                                    from Ultimate-Guitar.com database.

                                    Type "ultimate guitar tabs" in Apple
                                    App Store's or Android Market's
                                    search to find the application.
Artist: Linkin Park
Song: So Far Away
Album: LPUnderground 12
Tabber: TheSiggi

Guitar 1 - Half Step Down (D# G# C# F# A# D#) - Heavy Distorted
Guitar 2 - Half Step Down (D# G# C# F# A# D#) - Heavy Distorted (Duplicate of Gtr 1)
Guitar 3 - Half Step Down (D# G# C# F# A# D#) - Heavy Distorted w/ Lo-Fi and Flanger
Guitar 4 - Half Step Down (D# G# C# F# A# D#) - Heavy Distorted w/ Lo-Fi and Flanger 
(Duplicate of Gtr 3)
Guitar 3 - Half Step Down (D# G# C# F# A# D#) - Heavy Distorted w/ Lo-Fi

I play this song with:
Gtr: PRS SE 22
Ampli: Fender Frontman 25R
Effects: Boss DS-2 Turbo Dist, Ibanez LF-7 Lo-Fi, Boss BF-3 Flanger.

Intro - Guitars 1 and 2
|-------------------------------------------------------------------------------------------------|
|-------------------------------------------------------------------------------------------------|
|-------------------------------------------------------------------------------------------------|
|-2--------2-----2--2--------2-----2--2-----------2--------2-----2--2--------2-----2--2-----------|
|-2--------2-----2--2--------2-----2--2-----------3--------3-----3--3--------3-----3--3-----------|
|-0--------0-----0--0--------0-----0--0-----------0--------0-----0--0--------0-----0--0-----------|

|-------------------------------------------------------------------------------------------------|
|-------------------------------------------------------------------------------------------------|
|-------------------------------------------------------------------------------------------------|
|-2--------2-----2--2--------2-----2--2-----------2--------2-----2--4--------4-----4--4-----------|
|-5--------5-----5--5--------5-----5--5-----------3--------3-----3--3--------3-----3--3-----------|
|-0--------0-----0--0--------0-----0--0-----------0--------0-----0--0--------0-----0--0-----------|

|-------------------------------------------------------------------------------------------------|
|-------------------------------------------------------------------------------------------------|
|-------------------------------------------------------------------------------------------------|
|-2--------2-----2--2--------2-----2--2-----------2--------2-----2--2--------2-----2--2-----------|
|-2--------2-----2--2--------2-----2--2-----------3--------3-----3--3--------3-----3--3-----------|
|-0--------0-----0--0--------0-----0--0-----------0--------0-----0--0--------0-----0--0-----------|

|-------------------------------------------------------------------------------------------------|
|-------------------------------------------------------------------------------------------------|
|-------------------------------------------------------------------------------------------------|
|-2--------2-----2--2--------2-----2--2-----------2--------2-----2--4--------4-----4--4-----------|
|-5--------5-----5--5--------5-----5--5-----------3--------3-----3--3--------3-----3--3-----------|
|-0--------0-----0--0--------0-----0--0-----------0--------0-----0--0--------0-----0--0-----------|

Verse 1 (1st Part) - Guitars 3 and 4 (Activate Lo-Fi)
|-------------------------------------------------------------------------------------------------|
|-------------------------------------------------------------------------------------------------|
|-------------------------------------------------------------------------------------------------|
|-2--------2-----2--2--------2-----2--2-----------2--------2-----2--2--------2-----2--2-----------|
|-2--------2-----2--2--------2-----2--2-----------3--------3-----3--3--------3-----3--3-----------|
|-0--------0-----0--0--------0-----0--0-----------0--------0-----0--0--------0-----0--0-----------|

|-------------------------------------------------------------------------------------------------|
|-------------------------------------------------------------------------------------------------|
|-------------------------------------------------------------------------------------------------|
|-2--------2-----2--2--------2-----2--2-----------2--------2-----2--4--------4-----4--4-----------|
|-5--------5-----5--5--------5-----5--5-----------3--------3-----3--3--------3-----3--3-----------|
|-0--------0-----0--0--------0-----0--0-----------0--------0-----0--0--------0-----0--0-----------|

|-------------------------------------------------------------------------------------------------|
|-------------------------------------------------------------------------------------------------|
|-------------------------------------------------------------------------------------------------|
|-2--------2-----2--2--------2-----2--2-----------2--------2-----2--2--------2-----2--2-----------|
|-2--------2-----2--2--------2-----2--2-----------3--------3-----3--3--------3-----3--3-----------|
|-0--------0-----0--0--------0-----0--0-----------0--------0-----0--0--------0-----0--0-----------|

|-------------------------------------------------------------------------------------------------|
|-------------------------------------------------------------------------------------------------|
|-------------------------------------------------------------------------------------------------|
|-2--------2-----2--2--------2-----2--2-----------2--------2-----2--4--------4-----4--4-----------|
|-5--------5-----5--5--------5-----5--5-----------3--------3-----3--3--------3-----3--3-----------|
|-0--------0-----0--0--------0-----0--0-----------0--------0-----0--0--------0-----0--0-----------|

Verse 1 Breakdown - Guitars 1 and 2 (Disactivate Lo-Fi)
|-------------------------------------------------------------------------------------------------|
|-------------------------------------------------------------------------------------------------|
|-------------------------------------------------------------------------------------------------|
|-2--------2-----2--2--------2-----2--2-----------2--------2-----2--2--------2-----2--2-----------|
|-2--------2-----2--2--------2-----2--2-----------3--------3-----3--3--------3-----3--3-----------|
|-0--------0-----0--0--------0-----0--0-----------0--------0-----0--0--------0-----0--0-----------|

|-------------------------------------------------------------------------------------------------|
|-------------------------------------------------------------------------------------------------|
|-------------------------------------------------------------------------------------------------|
|-2--------2-----2--2--------2-----2--2-----------2--------2-----2--4--------4-----4--4-----------|
|-5--------5-----5--5--------5-----5--5-----------3--------3-----3--3--------3-----3--3-----------|
|-0--------0-----0--0--------0-----0--0-----------0--------0-----0--0--------0-----0--0-----------|

Verse 1 (2nd Part) - Guitars 3 and 4 (Activate Lo-Fi)
|-------------------------------------------------------------------------------------------------|
|-------------------------------------------------------------------------------------------------|
|-------------------------------------------------------------------------------------------------|
|-2--------2-----2--2--------2-----2--2-----------2--------2-----2--2--------2-----2--2-----------|
|-2--------2-----2--2--------2-----2--2-----------3--------3-----3--3--------3-----3--3-----------|
|-0--------0-----0--0--------0-----0--0-----------0--------0-----0--0--------0-----0--0-----------|

|-------------------------------------------------------------------------------------------------|
|-------------------------------------------------------------------------------------------------|
|-------------------------------------------------------------------------------------------------|
|-2--------2-----2--2--------2-----2--2-----------2--------2-----2--4--------4-----4--4-----------|
|-5--------5-----5--5--------5-----5--5-----------3--------3-----3--3--------3-----3--3-----------|
|-0--------0-----0--0--------0-----0--0-----------0--------0-----0--0--------0-----0--0-----------|

|-------------------------------------------------------------------------------------------------|
|-------------------------------------------------------------------------------------------------|
|-------------------------------------------------------------------------------------------------|
|-2--------2-----2--2--------2-----2--2-----------2--------2-----2--2--------2-----2--2-----------|
|-2--------2-----2--2--------2-----2--2-----------3--------3-----3--3--------3-----3--3-----------|
|-0--------0-----0--0--------0-----0--0-----------0--------0-----0--0--------0-----0--0-----------|

|-------------------------------------------------------------------------------------------------|
|-------------------------------------------------------------------------------------------------|
|-------------------------------------------------------------------------------------------------|
|-2--------2-----2--2--------2-----2--2-----------2--------2-----2--4--------4-----4--4-----------|
|-5--------5-----5--5--------5-----5--5-----------3--------3-----3--3--------3-----3--3-----------|
|-0--------0-----0--0--------0-----0--0-----------0--------0-----0--0--------0-----0--0-----------|

Chorus - Guitars 1 and 2 (Disactivate Lo-Fi)
|-------------------------------------------------------------------------------------------------|
|-------------------------------------------------------------------------------------------------|
|-------------------5-----------------4-----------------------------------------------------------|
|-2~----------------------------------------2-----3-\2-----2-----x--3-\2-----2-----x--2-----------|
|-2~----------------------------------------------3-\2-----2-----x--3-\2-----2-----x--2-----------|
|-0~----------------------------------------------1-p0-----0-----x--1-p0-----0-----x--0-----------|

|----------------------------------------------------------------------------------------|
|-------------------(3)------------------------------------------------------------------|
|-------------------------------------4--------------------------------------------------|
|-5~----------------------------5-----------------5-\3-----3-----x--5-\3-----3-----x--3--|
|-3~----------------------------------------------5-\3-----3-----x--5-\3-----3-----x--3--|
|-3~----------------------------------------------3-\1-----1-----x--3-\1-----1-----x--1--|

|-------------------------------------------------------------------------------------------------|
|-------------------------------------------------------------------------------------------------|
|-------------------5-----------------4-----------------------------------------------------------|
|-2~----------------------------------------2-----3-\2-----2-----x--3-\2-----2-----x--2-----------|
|-2~----------------------------------------------3-\2-----2-----x--3-\2-----2-----x--2-----------|
|-0~----------------------------------------------1-p0-----0-----x--1-p0-----0-----x--0-----------|

|-------------------------------------------------------------------------------------------------|
|-------------------(3)---------------------------------------------------------------------------|
|-------------------------------------4-----------------------------------------------------------|
|-5~----------------------------5-----------------5-\3-----3-----x--5-\3-----3-----x--3-----------|
|-3~----------------------------------------------5-\3-----3-----x--5-\3-----3-----x--3-----------|
|-3~----------------------------------------------3-\1-----1-----x--3-\1-----1-----x--1-----------|

Post-Chorus Break - Guitars 1 and 2
|-------------------------------------------------------------------------------------------------|
|-------------------------------------------------------------------------------------------------|
|-------------------------------------------------------------------------------------------------|
|-2--------2-----2--2--------2-----2--2-----------2--------2-----2--2--------2-----2--2-----------|
|-2--------2-----2--2--------2-----2--2-----------3--------3-----3--3--------3-----3--3-----------|
|-0--------0-----0--0--------0-----0--0-----------0--------0-----0--0--------0-----0--0-----------|

|-------------------------------------------------------------------------------------------------|
|-------------------------------------------------------------------------------------------------|
|-------------------------------------------------------------------------------------------------|
|-2--------2-----2--2--------2-----2--2-----------2--------2-----2--4--------4-----4--4-----------|
|-5--------5-----5--5--------5-----5--5-----------3--------3-----3--3--------3-----3--3-----------|
|-0--------0-----0--0--------0-----0--0-----------0--------0-----0--0--------0-----0--0-----------|

Verse 2 - Guitars 3 and 4 (Activate Lo-Fi)
|-------------------------------------------------------------------------------------------------|
|-------------------------------------------------------------------------------------------------|
|-------------------------------------------------------------------------------------------------|
|-2--------2-----2--2--------2-----2--2-----------2--------2-----2--2--------2-----2--2-----------|
|-2--------2-----2--2--------2-----2--2-----------3--------3-----3--3--------3-----3--3-----------|
|-0--------0-----0--0--------0-----0--0-----------0--------0-----0--0--------0-----0--0-----------|

|-------------------------------------------------------------------------------------------------|
|-------------------------------------------------------------------------------------------------|
|-------------------------------------------------------------------------------------------------|
|-2--------2-----2--2--------2-----2--2-----------2--------2-----2--4--------4-----4--4-----------|
|-5--------5-----5--5--------5-----5--5-----------3--------3-----3--3--------3-----3--3-----------|
|-0--------0-----0--0--------0-----0--0-----------0--------0-----0--0--------0-----0--0-----------|

|-------------------------------------------------------------------------------------------------|
|-------------------------------------------------------------------------------------------------|
|-------------------------------------------------------------------------------------------------|
|-2--------2-----2--2--------2-----2--2-----------2--------2-----2--2--------2-----2--2-----------|
|-2--------2-----2--2--------2-----2--2-----------3--------3-----3--3--------3-----3--3-----------|
|-0--------0-----0--0--------0-----0--0-----------0--------0-----0--0--------0-----0--0-----------|

|-------------------------------------------------------------------------------------------------|
|-------------------------------------------------------------------------------------------------|
|-------------------------------------------------------------------------------------------------|
|-2--------2-----2--2--------2-----2--2-----------2--------2-----2--4--------4-----4--4-----------|
|-5--------5-----5--5--------5-----5--5-----------3--------3-----3--3--------3-----3--3-----------|
|-0--------0-----0--0--------0-----0--0-----------0--------0-----0--0--------0-----0--0-----------|

Chorus - Guitars 1 and 2 (Disactivate Lo-Fi)
|-------------------------------------------------------------------------------------------------|
|-------------------------------------------------------------------------------------------------|
|-------------------5-----------------4-----------------------------------------------------------|
|-2~----------------------------------------2-----3-\2-----2-----x--3-\2-----2-----x--2-----------|
|-2~----------------------------------------------3-\2-----2-----x--3-\2-----2-----x--2-----------|
|-0~----------------------------------------------1-p0-----0-----x--1-p0-----0-----x--0-----------|

|-------------------------------------------------------------------------------------------------|
|-------------------(3)---------------------------------------------------------------------------|
|-------------------------------------4-----------------------------------------------------------|
|-5~----------------------------5-----------------5-\3-----3-----x--5-\3-----3-----x--3-----------|
|-3~----------------------------------------------5-\3-----3-----x--5-\3-----3-----x--3-----------|
|-3~----------------------------------------------3-\1-----1-----x--3-\1-----1-----x--1-----------|

|-------------------------------------------------------------------------------------------------|
|-------------------------------------------------------------------------------------------------|
|-------------------5-----------------4-----------------------------------------------------------|
|-2~----------------------------------------2-----3-\2-----2-----x--3-\2-----2-----x--2-----------|
|-2~----------------------------------------------3-\2-----2-----x--3-\2-----2-----x--2-----------|
|-0~----------------------------------------------1-p0-----0-----x--1-p0-----0-----x--0-----------|

|-------------------------------------------------------------------------------------------------|
|-------------------(3)---------------------------------------------------------------------------|
|-------------------------------------4-----------------------------------------------------------|
|-5~----------------------------5-----------------5-\3-----3-----x--5-\3-----3-----x--3-----------|
|-3~----------------------------------------------5-\3-----3-----x--5-\3-----3-----x--3-----------|
|-3~----------------------------------------------3-\1-----1-----x--3-\1-----1-----x--1-----------|

Bridge - Guitars 1 and 2
|-------------------------------------------------------------------------------------------------|
|-------------------------------------------------------------------------------------------------|
|-------------------5-----------------4-----------------------------------------------------------|
|-2~----------------------------------------2-----3-\2-----2-----x--3-\2-----2-----x--2-----------|
|-2~----------------------------------------------3-\2-----2-----x--3-\2-----2-----x--2-----------|
|-0~----------------------------------------------1-p0-----0-----x--1-p0-----0-----x--0-----------|

|-------------------------------------------------------------------------------------------------|
|-------------------------------------------------------------------------------------------------|
|-2--------2-----2--2--------2-----2--2-----------2--------2-----2--2--------2-----2--2-----------|
|-2--------2-----2--2--------2-----2--2-----------3--------3-----3--3--------3-----3--3-----------|
|-0--------0-----0--0--------0-----0--0-----------0--------0-----0--0--------0-----0--0-----------|
|-------------------------------------------------------------------------------------------------|

|-------------------------------------------------------------------------------------------------|
|-------------------------------------------------------------------------------------------------|
|-2--------2-----2--2--------2-----2--2-----------2--------2-----2--4--------4-----4--4-----------|
|-5--------5-----5--5--------5-----5--5-----------3--------3-----3--3--------3-----3--3-----------|
|-0--------0-----0--0--------0-----0--0-----------0--------0-----0--0--------0-----0--0-----------|
|-------------------------------------------------------------------------------------------------|

|-------------------------------------------------------------------------------------------------|
|-------------------------------------------------------------------------------------------------|
|-2--------2-----2--2--------2-----2--2-----------2--------2-----2--2--------2-----2--2-----------|
|-2--------2-----2--2--------2-----2--2-----------3--------3-----3--3--------3-----3--3-----------|
|-0--------0-----0--0--------0-----0--0-----------0--------0-----0--0--------0-----0--0-----------|
|-------------------------------------------------------------------------------------------------|

|-------------------------------------------------------------------------------------------------|
|-------------------------------------------------------------------------------------------------|
|-2--------2-----2--2--------2-----2--2-----------2--------2-----2--4--------4-----4--4-----------|
|-5--------5-----5--5--------5-----5--5-----------3--------3-----3--3--------3-----3--3-----------|
|-0--------0-----0--0--------0-----0--0-----------0--------0-----0--0--------0-----0--0-----------|
|-------------------------------------------------------------------------------------------------|

Final Chorus - Guitar 5 (Activate Lo-Fi)
|-------------------------------------------------------------------------------------------------|
|-------------------------------------------------------------------------------------------------|
|-------------------5-----------------4-----------------------------------------------------------|
|-2~----------------------------------------2-----3-\2-----2-----x--3-\2-----2-----x--2-----------|
|-2~----------------------------------------------3-\2-----2-----x--3-\2-----2-----x--2-----------|
|-0~----------------------------------------------1-p0-----0-----x--1-p0-----0-----x--0-----------|

(Guitars 1 and 2 Enters with no Lo-Fi, Gtr 5 plays in background w/ Lo-Fi)
|----------------------------------------------------------------------------------------|
|-------------------(0)------------------------------------------------------------------|
|----------------------------------------------------------------------------------------|
|-5~----------------------------------5-----------5--5-----5-----x--5--5-----5-----x--5--|
|-3~----------------------------3-----------------3--3-----3-----x--3--3-----3-----x--3--|
|-1~----------------------------------------------1--1-----1-----x--1--1-----1-----x--1--|

|-------------------------------------------------------------------------------------------------|
|-------------------------------------------------------------------------------------------------|
|-------------------5-----------------4-----------------------------------------------------------|
|-2~----------------------------------------2-----3-\2-----2-----x--3-\2-----2-----x--2-----------|
|-2~----------------------------------------------3-\2-----2-----x--3-\2-----2-----x--2-----------|
|-0~----------------------------------------------1-p0-----0-----x--1-p0-----0-----x--0-----------|

|----------------------------------------------------------------------------------------|
|-------------------(0)------------------------------------------------------------------|
|----------------------------------------------------------------------------------------|
|-5~----------------------------------5-----------5--5-----5-----x--5--5-----5-----x--5--|
|-3~----------------------------3-----------------3--3-----3-----x--3--3-----3-----x--3--|
|-1~----------------------------------------------1--1-----1-----x--1--1-----1-----x--1--|

|-------------------------------------------------------------------------------------------------|
|-------------------------------------------------------------------------------------------------|
|-------------------5-----------------4-----------------------------------------------------------|
|-2~----------------------------------------2-----3-\2-----2-----x--3-\2-----2-----x--2-----------|
|-2~----------------------------------------------3-\2-----2-----x--3-\2-----2-----x--2-----------|
|-0~----------------------------------------------1-p0-----0-----x--1-p0-----0-----x--0-----------|

|----------------------------------------------------------------------------------------|
|-------------------(3)------------------------------------------------------------------|
|-------------------------------------4--------------------------------------------------|
|-5~----------------------------5-----------------5-\3-----3-----x--5-\3-----3-----x--3--|
|-3~----------------------------------------------5-\3-----3-----x--5-\3-----3-----x--3--|
|-3~----------------------------------------------3-\1-----1-----x--3-\1-----1-----x--1--|

|-------------------------------------------------------------------------------------------------|
|-------------------------------------------------------------------------------------------------|
|-------------------5-----------------4-----------------------------------------------------------|
|-2~----------------------------------------2-----3-\2-----2-----x--3-\2-----2-----x--2-----------|
|-2~----------------------------------------------3-\2-----2-----x--3-\2-----2-----x--2-----------|
|-0~----------------------------------------------1-p0-----0-----x--1-p0-----0-----x--0-----------|

|------------------------------------------------|
|-------------------(3)--------------------------|
|-------------------------------------4----------|
|-5~----------------------------5-----------(5)--|
|-3~---------------------------------------------|
|-3~---------------------------------------------|
|Guitars 1 and 2

|-------------------------------------------------------------------------------------------------|
|-------------------------------------------------------------------------------------------------|
|-------------------------------------------------------------------------------------------------|
|-------------------------------------------------5-\3-----3-----x--5-\3-----3-----x--3-----------|
|-------------------------------------------------5-\3-----3-----x--5-\3-----3-----x--3-----------|
|-------------------------------------------------3-\1-----1-----x--3-\1-----1-----x--1-----------|
|Guitar 5


Enjoy!
comments
We did not receive enough feedback on this tab! Please rate:
print report bad tab
1 2 3 4 5
I want to post or [tab]
guest
You may want to rate the tab now too:
select rating
Please do not post tabs as comments. Select "correction" instead!