Oops, an error
Loading. Please wait.

Acid Rain Tab

ver1
ver1

Whole song

More versions @911Tabs.com
9,732 views 1 this week
3 commentsread comments
1 2 3 4 5
worth learning
x 8
Autoscroll
+/-
esc
set tempo
stop
Hey! There's an official Ultimate Guitar app which is ideal
for learning songs when you're away from computer. Get the app
WARNING: You are trying to view
                                    content from Ultimate-Guitar.com
                                    in an unauthorized application,
                                    which is prohibited.

                                    Please use an official Ultimate
                                    Guitar Tabs application for iPhone,
                                    iPad or Android to access legitimate
                                    chords, guitar, bass, and drum tabs
                                    from Ultimate-Guitar.com database.

                                    Type "ultimate guitar tabs" in Apple
                                    App Store's or Android Market's
                                    search to find the application.
Acid Rain
By liquid tension experiment
Tabbed by : bighabit69@iamwasted.com (silkmoth)

Im working on the bass tab for this song.yayaya!  Gtr II
|-------------------------------------------------|
|-16----------------------------------------------|
|----14----------12----------14----------12-------|
|-------------------------14----------------------|
|-------14----12----------------14----12----------|
|----------12-------12-12----------12-------12-12-|


|-------------------------3----------------------|
|---------------------------14-------14-------14-|
|----14----------12---------------14----14-------|
|-14---------------------------14----------------|
|-------14----12---------------------------14----|
|----------12-------12-12------------------------|


|-------------------------------------------------|
|-------------------------------------------------|
|----14----------12----------14----------12-------|
|-14----------------------14----------------------|
|-------14----12----------------14----12----------|
|----------12-------12-12----------12-------12-12-|


  Gtr I
|-12-10-12-15-12-10-17-15-12-15-12-10-10--7--5--3-|
|-------------------------------------------------|
|-------------------------------------------------|
|-------------------------------------------------|
|-------------------------------------------------|
|-------------------------------------------------|
|
| Gtr II
|--------------------5--3--0--3--0----------------|
|----14-------16-14----------------14-14----------|
|-------------------------------------------14-12-|
|-14----14-17-------------------------------------|
|----------------------------------------14-------|
|-------------------------------------------------|


|--0----------------------------------------------|
|--------------9--7-------16----------------------|
|-----------9----------------14----------12-------|
|-----7--9----------------------------------------|
|--------------------7--7-------14----12----------|
|----------------------------------12-------12-12-|
|
|-------------------------------------------------|
|-------------------------------------------------|
|----14----------12----------14----------12-------|
|-14----------------------14----------------------|
|-------14----12----------------14----12----------|
|----------12-------12-12----------12-------12-12-|


  Gtrs I, II
|-------------------------3----------------------|
|---------------------------14-------14-------14-|
|----14----------12---------------14----14-------|
|-14---------------------------14----------------|
|-------14----12---------------------------14----|
|----------12-------12-12------------------------|


|-------------------------------------------------|
|-------------------------------------------------|
|----14----------12----------14----------12-------|
|-14----------------------14----------------------|
|-------14----12----------------14----12----------|
|----------12-------12-12----------12-------12-12-|


|-8-10-12-7-8-10-5-7-8-3-5-7-3----|
|------------------------------14-|
|---------------------------------|
|---------------------------------|
|---------------------------------|
|---------------------------------|


  Gtr I
|---17-12-12---17-12-12-|---17-12-12---17-12-12--|
|-----------------------|------------------------|
|-----------------------|------------------------|
|-----------------------|------------------------|
|-----------------------|------------------------|
|-----------------------|------------------------|


|---17-12-12---17-12-12-|---17-12-12---17-12-12-|---17-12-12---17-12-12-|
|-----------------------|-----------------------|-----------------------|
|-----------------------|-----------------------|-----------------------|
|-----------------------|-----------------------|-----------------------|
|-----------------------|-----------------------|-----------------------|
|-----------------------|-----------------------|-----------------------|


|---17-12-12---17-12-12-|---17-12-12---17-12-12-|
|-----------------------|-----------------------|
|-----------------------|-----------------------|
|-----------------------|-----------------------|
|-----------------------|-----------------------|
|-----------------------|-----------------------|


|-17-15-12-8-12-12-10-----------------------------|
|---------------------23----24-23----23-23-21-19--|
|---------------------------------24----------23--|
|---------------------22-24-----------------------|
|-------------------------------------------------|
|-------------------------------------------------|


|----------------------0--------------------------|
|--------4--4-------4----14--------------14-------|
|----19-------------------------------------------|
|-------------------------------------14----------|
|-19----------------------------------------------|
|---------------------------12-12--12-------12-12-|
|
| Gtr II
|-------------------------------------------------|
|----14------------------14--------------14-------|
|-------------------------------------------------|
|-14------------------14--------------14----------|
|-------------------------------------------------|
|-------12-12-(12)-12-------12-12--12-------12-12-|


|-------------------------------------------------|
|----14------------------14--------------14-------|
|-------------------------------------------------|
|-14------------------14--------------14----------|
|-------------------------------------------------|
|-------12-12------12-------12-12--12-------12-12-|
|
|-------------------------------------------------|
|----14------------------14--------------14-------|
|-------------------------------------------------|
|-14------------------14--------------14----------|
|-------------------------------------------------|
|-------12-12-(12)-12-------12-12--12-------12-12-|


|-------------------------------------------------|
|----14------------------14--------------14-------|
|-------------------------------------------------|
|-14------------------14--------------14----------|
|-------------------------------------------------|
|-------12-12------12-------12-12--12-------12-12-|
|
|-------------------------------------------------|
|----14------------------14--------------14-------|
|-------------------------------------------------|
|-14------------------14--------------14----------|
|-------------------------------------------------|
|-------12-12-(12)-12-------12-12--12-------12-12-|


|-8-10-12-7-8-10-5-7-8-3-5-7-3-----|
|------------------------------14--|
|----------------------------------|
|----------------------------------|
|----------------------------------|
|----------------------------------|
|
|-8-10-12-7-8-10-5-7-8-3-5-7-3-----|
|------------------------------14--|
|----------------------------------|
|----------------------------------|
|----------------------------------|
|----------------------------------|


|-------------------------------------------------|
|-------------------------------------------------|
|-14-12------------------12--------------12-------|
|-------------------------------------------------|
|---------------------12--------------12----------|
|-------12-12------12-------12-12--12-------12-12-|
|
|-------------------------------------------------|
|-------------------------------------------------|
|-14-12------------------12--------------12-------|
|-------------------------------------------------|
|---------------------12--------------12----------|
|-------12-12-(12)-12-------12-12--12-------12-12-|


|-------------------------------------------------|
|-------------------------------------------------|
|----12------------------12--------------12-------|
|-------------------------------------------------|
|-12------------------12--------------12----------|
|-------12-12------12-------12-12--12-------12-12-|
|
|-------------------------------------------------|
|-------------------------------------------------|
|----12------------------12--------------12-------|
|-------------------------------------------------|
|-12------------------12--------------12----------|
|-------12-12-(12)-12-------12-12--12-------12-12-|


|-------------------------------------------------|
|-------------------------------------------------|
|----12------------------12--------------12-------|
|-------------------------------------------------|
|-12------------------12--------------12----------|
|-------12-12------12-------12-12--12-------12-12-|
|
|-------------------------------------------------|
|-------------------------------------------------|
|----12------------------12--------------12-------|
|-------------------------------------------------|
|-12------------------12--------------12----------|
|-------12-12-(12)-12-------12-12--12-------12-12-|


|-------------------------------------------------|
|-------------------------------------------------|
|----12------------------12--------------12-------|
|-------------------------------------------------|
|-12------------------12--------------12----------|
|-------12-12------12-------12-12--12-------12-12-|
|
|-------------------------------------------------|
|-------------------------------------------------|
|----12------------------12--------------12-------|
|-------------------------------------------------|
|-12------------------12--------------12----------|
|-------12-12-(12)-12-------12-12--12-------12-12-|


  Gtrs I, II
|------------2-3---3-5---5-7---7-8---|-----------2-3---3-5---5-7---7-8---|
|----------4-----4-----4-------------|---16----4-----4-----4-------------|
|----------------------------------9-|-9-------------------------------9-|
|----14-16---------------------------|------16---------------------------|
|----------------------------7-------|---------------------------7-------|
|-12---------------------------------|-----------------------------------|


|-----------2-3---3-5---5-7---7-8---|-----------2-3---3-5---5-7---7-8---|
|---16----4-----4-----4-------------|---16----4-----4-----4-------------|
|-9-------------------------------9-|-9-------------------------------9-|
|------16---------------------------|------16---------------------------|
|---------------------------7-------|---------------------------7-------|
|-----------------------------------|-----------------------------------|


|-----------2-3---3-5---5-7---7-8---|-----------2-3---3-5---5-7---7-8---|
|---16----4-----4-----4-------------|---16----4-----4-----4-------------|
|-9-------------------------------9-|-9-------------------------------9-|
|------16---------------------------|------16---------------------------|
|---------------------------7-------|---------------------------7-------|
|-----------------------------------|-----------------------------------|


|-----------2-3---3-5---5-7---7-8---|-----------2-3---3-5---5-7---7-8---|
|---16----4-----4-----4-------------|---16----4-----4-----4-------------|
|-9-------------------------------9-|-9-------------------------------9-|
|------16---------------------------|------16---------------------------|
|---------------------------7-------|---------------------------7-------|
|-----------------------------------|-----------------------------------|


  Gtr I
|-----------|---------------|-----------|---------------|
|-----------|---------------|-----------|---------------|
|-----------|---------------|-----------|---------------|
|-21--------|-(21)----24----|-19--------|-(19)----21----|
|-19--------|-(19)----22----|-19--------|-(19)----21----|
|-19--------|-(19)----22----|-17--------|-(17)----19----|


|-----------|---------------|-11--------|-(11)----|
|-----------|---------------|-----------|---------|
|-----------|---------------|-----------|---------|
|-22--------|-(22)----21----|-----------|---------|
|-22--------|-(22)----21----|-----------|---------|
|-20--------|-(20)----19----|-----------|---------|


|-----------|---------------|-----------|---------------|
|-----------|---------------|-----------|---------------|
|-----------|---------------|-----------|---------------|
|-21--------|-(21)----24----|-19--------|-(19)----21----|
|-19--------|-(19)----22----|-19--------|-(19)----21----|
|-19--------|-(19)----22----|-17--------|-(17)----19----|


|-----------|---------------|-11--------|-(11)----|
|-----------|---------------|-----------|---------|
|-----------|---------------|-----------|---------|
|-22--------|-(22)----21----|-----------|---------|
|-22--------|-(22)----21----|-----------|---------|
|-20--------|-(20)----19----|-----------|---------|


                 2/4     4/4             3/4           4/4
|-----------12--|-------|---------------|-------------|-----------12---|
|-----------16--|-------|---------------|-------------|-----------16---|
|---------------|-------|---------------|-17--17------|----------------|
|-21---24-------|--19---|-21---24-------|-------------|-21---24--------|
|-19---22-------|--17---|-19---22-------|---------17--|-19---22--------|
|-19---22-------|--15---|-19---22---19--|-------------|-19---22--------|


 2/4     3/4         4/4
|-------|-----------|-----------------|
|-------|-----------|-----------------|
|-------|-----------|-----17--17------|
|--19---|-21---24---|-----------------|
|--17---|-19---22---|-------------17--|
|--15---|-19---22---|-19--------------|


  Gtr III
|-10-9-7-9-7-5-3-7-9-10-15-17-15-17-15-14--|
|--------------------------------------17--|
|------------------------------------------|
|------------------------------------------|
|------------------------------------------|
|------------------------------------------|


|-------------------10--9---------------|
|-15-14-12-14-12-10----12-10-12---------|
|-------------------------------11-9-7--|
|---------------------------------------|
|---------------------------------------|
|---------------------------------------|


|-10-9-7-9-7-5-3-7-9-10-15-17-15-17-15-14--|
|--------------------------------------17--|
|------------------------------------------|
|------------------------------------------|
|------------------------------------------|
|------------------------------------------|


|----19-------17----------------------------------|
|-12-------------------19-------17----19-17-15-14-|
|-------------------------------------19-18-16-14-|
|-------21-19----19-------------------------------|
|-------------------21----21-19----19-------------|
|-------------------------------------------------|


|---------------------7-9-10-15-17-15-17-15-14-|
|-15-14-12-14-12-10-8-----------------------17-|
|----------------------------------------------|
|----------------------------------------------|
|----------------------------------------------|
|----------------------------------------------|


|-------------------10--9---------------|
|-15-14-12-14-12-10----12-10-12---------|
|-------------------------------11-9-7--|
|---------------------------------------|
|---------------------------------------|
|---------------------------------------|


|-10-9-7-9-7-5-3-7-9-10-15-17-15-17-15-14--|
|--------------------------------------17--|
|------------------------------------------|
|------------------------------------------|
|------------------------------------------|
|------------------------------------------|


|-------------------------17----17-21-19--|----------|-----|
|-14-15-17-15-17-17-19-17-19-19----24-----|----------|-----|
|-------18-------19-----------------------|----------|-----|
|-----------------------------------------|-0--------|-----|
|-----------------------------------------|-2--------|-----|
|-----------------------------------------|----------|-----|


|---------|---------|-----3-7-----7-12----------------------12--|
|---------|---------|-3-5-------5---------------12-------12-----|
|---------|---------|---------7--------------12-----------------|
|---------|---------|------------------12-14-------12-14--------|
|---------|---------|-------------------------------------------|
|---------|---------|-------------------------------------------|


|-------12-15-19-------------------------------|
|----10----------20-------15-14-13-12-10-9-8-7-|
|-12----------------18-16----------------------|
|----------------------------------------------|
|----------------------------------------------|
|----------------------------------------------|


|---10-14-------------12-15-19-17-16-14-12-10-12-|
|-8-------15-17-15-14----------------------14----|
|------------------------------------------------|
|------------------------------------------------|
|------------------------------------------------|
|------------------------------------------------|


|-10-8-7-6-5-3-10----9-7-5-3-2-------|---------------------2-----------|
|-14---------------------------5-3-2-|-5-7-5-7-8-7-5-7-5-3---5-5-7-5-7-|
|-----------------11-----------------|---------------------------------|
|------------------------------------|---------------------------------|
|------------------------------------|---------------------------------|
|------------------------------------|---------------------------------|


|-5-3-2-3-2-----3-2-3-5-3-5-7-5-3-|-5-3-2-5-3-5-7-5-7-9-7-5-7-5-3-3-|
|-----------5-3-------------------|-------------------------------7-|
|---------------------------------|---------------------------------|
|---------------------------------|---------------------------------|
|---------------------------------|---------------------------------|
|---------------------------------|---------------------------------|


|-5-7-10-9-7-10-12-14-15-15-17-21-19--|
|-----14-----14-------19-------24-----|
|-------------------------------------|
|-------------------------------------|
|-------------------------------------|
|-------------------------------------|


|------------------------------3-7-----7-12--|
|----------------------------5-------5-------|
|----------16----------21----------7---------|
|-------17----------21-----------------------|
|-17-19-------17-19--------------------------|
|-------------------------24-----------------|


|-------12-15-19-------------------------------|
|----10----------20-------15-14-13-12-10-9-8-7-|
|-12----------------18-16----------------------|
|----------------------------------------------|
|----------------------------------------------|
|----------------------------------------------|


|---10-14-------------12-15-19-17-16-14-12-10-12-|
|-8-------15-17-15-14----------------------14----|
|------------------------------------------------|
|------------------------------------------------|
|------------------------------------------------|
|------------------------------------------------|


|-10-8-7-6-5-3-10----9-7-5-3-2-------|---------------------2-----------|
|-14---------------------------5-3-2-|-5-7-5-7-8-7-5-7-5-3---5-5-7-5-7-|
|-----------------11-----------------|---------------------------------|
|------------------------------------|---------------------------------|
|------------------------------------|---------------------------------|
|------------------------------------|---------------------------------|


|-5-3-2-3-2-----3-2-3-5-3-5-7-5-3-|-5-3-2-5-3-5-7-5-7-9-7-5-7-5-3-3-|
|-----------5-3-------------------|-------------------------------7-|
|---------------------------------|---------------------------------|
|---------------------------------|---------------------------------|
|---------------------------------|---------------------------------|
|---------------------------------|---------------------------------|


                                        Gtr I
|-5-7-10-9-7-10-12-14-15-15-17-21-19--|-------------|---------------|
|-----14-----14-------19-------24-----|-------------|---------16----|
|-------------------------------------|-17----------|---------------|
|-------------------------------------|-------------|---------------|
|-------------------------------------|---------17--|-(17)----------|
|-------------------------------------|-------------|---------------|


|-------------------|-------------|---------------|-------------------|
|-(16)--------------|-------------|---------16----|-(16)--------------|
|-------------------|-17----------|---------------|-------------------|
|-------16--(16)----|-------------|---------------|-------16--(16)----|
|-------------------|---------17--|-(17)----------|-------------------|
|-------------------|-------------|---------------|-------------------|


|-------------|---------------|-------------------|-------------|
|-------------|---------16----|-(16)--------------|-------------|
|-17----------|---------------|-------------------|-17----------|
|-------------|---------------|-------16--(16)----|-------------|
|---------17--|-(17)----------|-------------------|---------17--|
|-------------|---------------|-------------------|-------------|


                                     2/4
|---------------|-------------------|-----------|
|---------16----|-(16)--------------|-16--------|
|---------------|-------------------|-----------|
|---------------|-------16--(16)----|-----------|
|-(17)----------|-------------------|-----------|
|---------------|-------------------|-----------|
|
| Gtr II
|---------------|-------------------|-----------|
|---------------|-------------------|-----------|
|---------------|-------------------|-----------|
|---------------|-------------------|-----------|
|---------------|-------------------|-----------|
|---------------|-------------------|-----------|


 4/4
|--------------------------------------------------|
|-14-----------------------------------------------|
|--------------------------------------------------|
|----14-------12-14--------------------------------|
|--------------------------------------------------|
|-------12-12-------12-12-12-12-12-12------12-12---|
|
|--------------------------------------------------|
|--------------------------------------------------|
|--------------------------------------------------|
|-12-14-------12-14--------------------------------|
|--------------------------------------------------|
|-------12-12-------12-12-12-12-12-12-(12)-12-12---|


|-------------------------------------------------|
|-------------------------------------------------|
|-------------------------------------------------|
|-12-14-------12-14-------------------------------|
|-------------------------------------------------|
|-------12-12-------12-12-12-12-12-12------12-12--|
|
|-------------------------------------------------|
|-------------------------------------------------|
|-------------------------------------------------|
|-12-14-------12-14-------------------------------|
|-------------------------------------------------|
|-------12-12-------12-12-12-12-12-12-(12)-12-12--|


|-------------------------------------------------|
|-------------------------------------------------|
|-------------------------------------------------|
|-12-14-------12-14-------------------------------|
|-------------------------------------------------|
|-------12-12-------12-12-12-12-12-12------12-12--|
|
|-------------------------------------------------|
|-------------------------------------------------|
|-------------------------------------------------|
|-12-14-------12-14-------------------------------|
|-------------------------------------------------|
|-------12-12-------12-12-12-12-12-12-(12)-12-12--|


|-------------------------------------------------|
|-------------------------------------------------|
|-------------------------------------------------|
|-12-14-------12-14-------------------------------|
|-------------------------------------------------|
|-------12-12-------12-12-12-12-12-12------12-12--|
|
|-------------------------------------------------|
|-------------------------------------------------|
|-------------------------------------------------|
|-12-14-------12-14-------------------------------|
|-------------------------------------------------|
|-------12-12-------12-12-12-12-12-12-(12)-12-12--|


|------------------------------------------------|
|------------------------------------------------|
|------------------------------------------------|
|-12-14-------12-14------------------------------|
|------------------------------------------------|
|-------12-12-------12-12-12-12-12-12-----12-12--|
|
|--2--3--------2--3------------------------------|
|--------4--4--------4--4--4--4--4--4-(4)--4--4--|
|------------------------------------------------|
|------------------------------------------------|
|------------------------------------------------|
|------------------------------------------------|


|------------------------------------------------|
|------------------------------------------------|
|------------------------------------------------|
|-12-14-------12-14------------------------------|
|------------------------------------------------|
|-------12-12-------12-12-12-12-12-12-----12-12--|
|
|--2--3--------2--3------------------------------|
|--------4--4--------4--4--4--4--4--4-(4)--4--4--|
|------------------------------------------------|
|------------------------------------------------|
|------------------------------------------------|
|------------------------------------------------|


|------------------------------------------------|
|------------------------------------------------|
|------------------------------------------------|
|-12-14-------12-14------------------------------|
|------------------------------------------------|
|-------12-12-------12-12-12-12-12-12-----12-12--|
|
|--2--3--------2--3------------------------------|
|--------4--4--------4--4--4--4--4--4-(4)--4--4--|
|------------------------------------------------|
|------------------------------------------------|
|------------------------------------------------|
|------------------------------------------------|


|------------------------------------------------|-----------|-----|
|------------------------------------------------|-11--------|-----|
|------------------------------------------------|-----------|-----|
|-12-14-------12-14------------------------------|-----------|-----|
|------------------------------------------------|-----------|-----|
|-------12-12-------12-12-12-12-12-12-----12-12--|-12--------|-----|
|
|--2--3--------2--3------------------------------|-----------|-----|
|--------4--4--------4--4--4--4--4--4-(4)--4--4--|-----------|-----|
|------------------------------------------------|-----------|-----|
|------------------------------------------------|-----------|-----|
|------------------------------------------------|-----------|-----|
|------------------------------------------------|-----------|-----|


  Gtr III
|---------|----------------------------|----------------|
|---------|----------------------------|----------------|
|---------|----------------------------|----------------|
|---------|----------------------------|----------------|
|---------|---17--19-(19)--19-(19)--17-|--19--19--17----|
|---------|----------------------------|----------------|


|--------------------------|----------------------|---------------------|
|--------------------------|----------------------|-----------------0---|
|--------------------------|--------------14------|-----------------2---|
|--------------------------|-16------16-------16--|-(16)----(16)--------|
|-(17)---------------------|-17--17---------------|---------------------|
|--------19-19-19-19-19----|----------------------|---------------------|


|-----------------------|-------------------------|---------------------------|
|-----------------------|-3-----------------------|---------------------------|
|--2-(2)--(2)-4-(4)-2-4-|---4-(4)--(4)--(4)---2-4-|-2-------------------------|
|-----------------------|-------------------4-----|---4-4-2-0---0-(0)---------|
|-----------------------|-------------------------|-----------2-------2-(2)---|
|-----------------------|-------------------------|---------------------------|


|---------------|----------------------|----------------|--------------|
|---------------|----------------------|----------------|--------------|
|---------------|----------------------|----------------|--------------|
|----------0----|----------------------|--------------0-|-(0)----0-----|
|----0--2-----2-|-(2)--(2)---------2-2-|-(2)----(2)-----|-----------2--|
|---------------|----------4-2-0-------|----------------|--------------|


|------------------|-5----(5)----|-0---4-2-(2)----------------|
|------------------|-------------|---3----------3-5-7---------|
|--------------2-4-|-------------|--------------------7-(7)---|
|------------------|-------------|----------------------------|
|-(2)----(2)-------|-------------|----------------------------|
|------------------|-------------|----------------------------|


|------------------------|---------------|-------------|--------|
|--------7---5-7---------|---------------|-------------|--------|
|--7-------7-------------|---------------|-------------|--------|
|----9-7-----------------|---------------|-------------|--------|
|------------------------|---------------|-------------|--------|
|------------------------|---------------|-------------|--------|
|
| Gtr IV
|-----------------6-(6)--|-(6)----(6)----|---9--(9)----|-(9)----|
|------------------------|---------------|-------------|--------|
|------------------------|---------------|-------------|--------|
|------------------------|---------------|-------------|--------|
|------------------------|---------------|-------------|--------|
|------------------------|---------------|-------------|--------|


  Gtr IV
|-(9)------------------|--------------------------|------------------------|
|-----10-9-7-(7)-5-3-2-|-(2)-3-(3)-----3----------|------------------------|
|----------------------|-----------4-2---4-2---4--|-4-------4-(4)----------|
|----------------------|---------------------4----|---4-2-0-------4-2-0----|
|----------------------|--------------------------|---------------------2--|
|----------------------|--------------------------|------------------------|


|---------------------|---------------------|
|---------------------|---3-(3)-5-5-5-(5)-3-|
|-----------2-1-(1)-2-|-4-------------------|
|-2-2-(2)-4-----------|---------------------|
|---------------------|---------------------|
|---------------------|---------------------|


|--------------------|----------------------|
|-5-5-(5)--(5)-------|-5--3-2-5-(5)-3-2-5---|
|----------------6-4-|------4---------4-----|
|------------------7-|----------------------|
|--------------------|----------------------|
|--------------------|----------------------|


|----------------------------|-------------------|
|-3-2-5-(5)-3-5-(5)-5-(5)--3-|-5--3-5-5--3-5-3---|
|---4---------------7-(7)----|--------7----------|
|----------------------------|-------------------|
|----------------------------|-------------------|
|----------------------------|-------------------|
===========Liquid Tension Experiment - Acid Rain

E|-----------------------------------|---------------------------------|-------------
B|-----------------------------------|---------------------------------|-------------
G|-----------------------------------|---------------------------------|-------------
D|-----------------------------------|---------------------------------|-------------
A|-----------------------------------|-----------------5p0---7---------|-------------
E|---7p0-------------7p0-------------|-7p0-----------------7---5p7-----|-7p0---------
B|-------7p0-5-3-0-0-----7p0-5-3-0-0-|-----7p0-5-3-0-0-------------0-0-|-----7p0-5-3-

E|---------------------|---------------------------------|---------------------------
B|---------------------|---------------------------------|---------------------------
G|---------------------|-------7-----9p7---7-------------|---------------------------
D|---------------------|-9-7-9---7-9-----9---9-7-9-7-----|---------------------------
A|---------------------|-----------------------------9-7-|---------------------------
E|-----7p0-------------|---------------------------------|-7p0-------------7p0-------
B|-0-0-----7p0-5-3-0-0-|---------------------------------|-----7p0-5-3-0-0-----7p0-5-
                         Doubled one octave below
E--------|---------------------------------|---------------------------------|-------
B--------|---------------------------------|---------------------------------|-------
G--------|---------------------------------|---------------------------------|-------
D--------|---------------------------------|---------------------------------|-------
A--------|-----------------5p0---7---------|---------------------------------|-10----
E--------|-7p0-----------------7---5p7-----|-7p0-------------7p0-------------|----10-
B--3-0-0-|-----7p0-5-3-0-0-------------0-0-|-----7p0-5-3-0-0-----7p0-5-3-0-0-|-------

E-----------------------------|---------------------------------------|-------------
B-----------------------------|-12-----------------12-----------------|-12----------
G-----------------------------|----9-11---9-----------9-11---9--------|----9-11---9-
D--9------7-----5-----4-------|---------9---12-9-9---------9---12-9-9-|---------9---
A----9------7-----5-----4-----|---------------------------------------|-------------
E------10-----7-----5------5--|---------------------------------------|-------------
B-----------------------------|---------------------------------------|-------------

E------------------------------|---------------------------------------|------------
B---------15-14-12-0---10-12---|-12-----------------12-----------------|-15-14-12-0-
G--------------------9---------|----9-11---9-----------9-11---9--------|------------
D--12-9-9--------------------9-|---------9---12-9-9---------9---12-9-9-|------------
A------------------------------|---------------------------------------|------------
E------------------------------|---------------------------------------|------------
B------------------------------|---------------------------------------|------------

E------------------------------|---------------------------------------|-------------
B----10-----10-----------------|-12-----------------12-----------------|-12----------
G--9-----------9------9-11-----|----9-11---9-----------9-11---9--------|----9-11---9-
D-------9-9------12-9------9-9-|---------9---12-9-9---------9---12-9-9-|---------9---
A------------------------------|---------------------------------------|-------------
E------------------------------|---------------------------------------|-------------
B------------------------------|---------------------------------------|-------------

E------------------------------|---------------------------------------|------------
B---------15-14-12-0---10-12---|-12-----------------12-----------------|-0-5p3-0----
G--------------------9---------|----9-11---9-----------9-11---9--------|----------4-
D--12-9-9--------------------9-|---------9---12-9-9---------9---12-9-9-|------------
A------------------------------|---------------------------------------|------------
E------------------------------|---------------------------------------|------------
B------------------------------|---------------------------------------|------------

E-----------------------------------------|-------------------------------|---------
B-----------------------------------------|-------------------------------|---------
G--0--2--4-2-0-----2--0-------------------|-------------------------------|---------
D---------------4--------4--0-------------|-------------------------------|---------
A------------------------------7--9-7-5---|-------------------------------|---------
E---------------------------------------9-|-7-5--------7-5--------7-5-----|-7-5-----
B-----------------------------------------|-----0-0--0-----0-0--0-----0-0-|-----0-0-

E-----------------------|-------------------------------|----------------------------
B-----------------------|-------------------------------|----------------------------
G-----------------------|-------------------------------|----------------------------
D-----------------------|-------------------------------|-------9------7-----5-----4-
A-----------------------|-------------------------------|-10------9------7-----5-----
E----7-5--------7-5-----|-7-5--------7-5--------7-5-----|----10-----10-----7-----5---
B--0-----0-0--0-----0-0-|-----0-0--0-----0-0--0-----0-0-|----------------------------

E|-------|-------------------------------|-------------------------------|----------
B|-------|-------------------------------|-------------------------------|----------
G|-------|-------------------------------|-------------------------------|----------
D|-------|-------------------------------|-------------------------------|----------
A|-4-----|-7-5--------7-5--------7-5-----|-7-5--------7-5--------7-5-----|-7-5------
E|----5--|-----9-7--7-----9-7--7-----9-7-|-----9-7--7-----9-7--7-----9-7-|-----9-7--
B|-------|-------------------------------|-------------------------------|----------

E----------------------|-------------------------------|----------------------------
B----------------------|-------------------------------|----------------------------
G----------------------|-------------------------------|----------------------------
D----------------------|-------------------------------|----------------------------
A---7-5--------7-5-----|-7-5--------7-5--------7-5-----|----------------------7-9---
E-7-----9-7--7-----9-7-|-----9-7--7-----9-7--7-----9-7-|-7-9-7-9-10-7-10-12-7-----7-
B----------------------|-------------------------------|----------------------------

E----------|-------------------------------------|-----------------------------------
B----------|-------------------------------------|-----------------------------------
G----------|-------------------------------------|-----------------------------------
D----------|-------------------------------------|-----------------------------------
A---9-10---|----------------------7-9-----9-10---|----------------------7-9-----9-10-
E-7------7-|-7-9-7-9-10-7-10-12-7-----7-7------7-|-7-9-7-9-10-7-10-12-7-----7-7------
B----------|-------------------------------------|-----------------------------------

E---|-------------------------------------|-------------------------------------|---
B---|-------------------------------------|-------------------------------------|---
G---|-------------------------------------|-------------------------------------|---
D---|-------------------------------------|-------------------------------------|---
A---|----------------------7-9-----9-10---|----------------------7-9-----9-10---|---
E-7-|-7-9-7-9-10-7-10-12-7-----7-7------7-|-7-9-7-9-10-7-10-12-7-----7-7------7-|-7-
B---|-------------------------------------|-------------------------------------|---

E-----------------------------------|-------------------------------------|---------
B-----------------------------------|-------------------------------------|---------
G-----------------------------------|-------------------------------------|---------
D-----------------------------------|-------------------------------------|---------
A--------------------7-9-----9-10---|----------------------7-9-----9-10---|---------
E-9-7-9-10-7-10-12-7-----7-7------7-|-7-9-7-9-10-7-10-12-7-----7-7------7-|-7-9-7-9-
B-----------------------------------|-------------------------------------|---------

E-----------------------------|----------|----------|---------|----------|---------|-
B-----------------------------|----------|----------|---------|----------|---------|-
G-----------------------------|----------|----------|---------|----------|---------|-
D-----------------------------|----------|----------|---------|-------4--|-5-------|-
A--------------7-9-----9-10---|-2--------|-------5--|-7-------|-------4--|-5-------|-
E-10-7-10-12-7-----7-7------7-|-2--------|-------5--|-7-------|----------|---------|-
B-----------------------------|----------|----------|---------|----------|---------|-

E|----------|----------|----------|----------|----------|---------|----------|-------
B|----------|----------|----------|----------|----------|---------|----------|-------
G|----------|----------|----------|----------|----------|---------|----------|-------
D|-------7--|----------|-8--------|----------|----------|---------|-------4--|-5-----
A|-------7--|-9--------|-8--------|-2--------|-------5--|-7-------|-------4--|-5-----
E|----------|-9--------|----------|-2--------|-------5--|-7-------|----------|-------
B|----------|----------|----------|----------|----------|---------|----------|-------

E---|----------|----------|----------|------------------|-------------------------|-
B---|----------|----------|----------|------------------|-------------------------|-
G---|----------|----------|----------|------------------|-------------------------|-
D---|-------7--|----------|-8--------|------------------|-------------------------|-
A---|-------7--|-9--------|-8--------|-----------9---5--|-----------9---5--7--10--|-
E---|----------|-9--------|----------|--7---10----------|--7---10-----------------|-
B---|----------|----------|----------|------------------|-------------------------|-
                                               
E------------------|-------------------------|-
B------------------|-------------------------|-
G------------------|-------------------------|-
D------------------|-------------------------|-
A-----------9---5--|-----------9---5--7--10--|-
E--7---10----------|--7---10-----------------|-
B------------------|-------------------------|-   

E------------------------------------------14--17--15--17-15-14------14-------------
B--15--14------14------------------14--15------------------------17------17--15--17-
G----------16------16--14------16---------------------------------------------------
D--------------------------17-------------------------------------------------------
A-----------------------------------------------------------------------------------
E-----------------------------------------------------------------------------------
B-----------------------------------------------------------------------------------
         3plet
E---------------------------------------------|-------------------------------------
B--16------15-14------------------------------|-15--14------14------------------14--
G------16--------16-14--16--------------------|---------16------16--14------16------
D---------------------------16--14--12--------|-------------------------17----------
A---------------------------------------------|-------------------------------------
E---------------------------------------------|-------------------------------------
B---------------------------------------------|-------------------------------------

E-----14--17--15--17-15-14------19--19----------17----------14----------------------
B-15------------------------17------------------------------------------17------19--
G---------------------------------------19--18------18--16------16--14------14------
D-----------------------------------------------------------------------------------
E-----------------------------------------------------------------------------------
E-----------------------------------------------------------------------------------
B-----------------------------------------------------------------------------------

E-----------|-----------------------------------------14--17--15--17-15-14------14--
B-17--15----|-15--14------14------------------14--15------------------------17------
G-----------|---------16------16--14------16----------------------------------------
D-----------|-------------------------17--------------------------------------------
A-----------|-----------------------------------------------------------------------
E-----------|-----------------------------------------------------------------------
B-----------|-----------------------------------------------------------------------
                    3plet
E--------------------------------------------------------|----------------------------
B-17--15--17--16------15-14------------------------------|-15--14------14-------------
G-----------------16--------16-14--16--------------------|---------16------16--14-----
D--------------------------------------16--14--12--------|-------------------------17-
A--------------------------------------------------------|----------------------------
E--------------------------------------------------------|----------------------------
B--------------------------------------------------------|----------------------------

E--------------14--17--15--17-15-14------------------------------14-15-14-15-17-17-14-
B------14--15------------------------17--14-15-17-14-17-17-14-17----------------------
G--16---------------------------------------------------------------------------------
D-------------------------------------------------------------------------------------
A-------------------------------------------------------------------------------------
E-------------------------------------------------------------------------------------
B-------------------------------------------------------------------------------------
                            Guitar tacet
E--17--19--17--19--19b21--r----|--------|--------|--------|--------|----------------
B------------------------------|--------|--------|--------|--------|----------------
G------------------------------|--------|--------|--------|--------|-------12-16----
D------------------------------|--------|--------|--------|--------|-12-14-------12-
A------------------------------|--------|--------|--------|--------|----------------
E------------------------------|--------|--------|--------|--------|----------------
B------------------------------|--------|--------|--------|--------|----------------  
                                                                 
E-----------------------------------|-------12-17-19-15-------------------------------
B-----12-17-------------------12-17-|-------------------------------------------------
G-----------------12-16-------------|-12-14-------------18-16-19-18-17-16-------------
D--14-------12-14-------12-14-------|-------------------------------------19-18-17-16-
A-----------------------------------|-------------------------------------------------
E-----------------------------------|-------------------------------------------------
B-----------------------------------|-------------------------------------------------

E-|-------------------------15-19-17-15-------------|-------------------------------
B-|----15-19-15-17-15----17-------------19-17-15-14-|-17-15-14-17-15-14-------------
G-|-------------------18----------------------------|-------------------17-16-15-14-
D-|-17----------------------------------------------|-------------------------------
A-|-------------------------------------------------|-------------------------------
E-|-------------------------------------------------|-------------------------------
B-|-------------------------------------------------|-------------------------------

E-------------------------------|-------------------------------------------------|-
B----15----14-12----------------|-------------------------------------------------|-
G-12----12-------14-12----------|-------------12-------------------------12----12-|-
D----------------------16-14-12-|-14-16-14-16----16-14-16-14-12-16-14-16----16----|-
A-------------------------------|-------------------------------------------------|-
E-------------------------------|-------------------------------------------------|-
B-------------------------------|-------------------------------------------------|-

E|----------------------------------------------|-------------------------------------
B|----------------------------------------12----|-------------------------------14----
G|-14-12----12-14-16-14-12-11-12-14-12-14----14-|-12-14-12-11-14-12-14-16-14-16----16-
D|-------16-------------------------------------|-------------------------------------
A|----------------------------------------------|-------------------------------------
E|----------------------------------------------|-------------------------------------
B|----------------------------------------------|-------------------------------------

E--------------|-------------------------------------12-14-15-14-12----------15-17-19b21-
B--------------|-------------12-14-15-14-12-14-15-15----------------15-17-19-------------
G--14-16-14-12-|-11-12-14-14-------------------------------------------------------------
D--------------|-------------------------------------------------------------------------
A--------------|-------------------------------------------------------------------------
E--------------|-------------------------------------------------------------------------
B--------------|-------------------------------------------------------------------------
                 I' m not really sure about this measure, 
                 but if it is played very fast it's quite similar...
E---r-----|-------------------------------------------------|-------12-17-19-15-------
B---------|-------------------12-17-------------------12-17-|-------------------------
G---------|-------12-16-------------------12-16-------------|-12-14-------------18-16-
D---------|-12-14-------12-14-------12-14-------12-14-------|-------------------------
A---------|-------------------------------------------------|-------------------------
E---------|-------------------------------------------------|-------------------------
B---------|-------------------------------------------------|-------------------------

E--------------------------|-------------------------15-19-17-15-------------|-------
B--------------------------|----15-19-15-17-15----17-------------19-17-15-14-|-17-15-
G--19-18-17-16-------------|-------------------18----------------------------|-------
D--------------19-18-17-16-|-17----------------------------------------------|-------
A--------------------------|-------------------------------------------------|-------
E--------------------------|-------------------------------------------------|-------
B--------------------------|-------------------------------------------------|-------

E--------------------------------------------------------|----------------------------
B--14-17-15-14----------------15----14-12----------------|----------------------------
G--------------17-16-15-14-12----12-------14-12----------|-------------12-------------
D-----------------------------------------------16-14-12-|-14-16-14-16----16-14-16-14-
A--------------------------------------------------------|----------------------------
E--------------------------------------------------------|----------------------------
B--------------------------------------------------------|----------------------------

E-----------------------|----------------------------------------------|-------------
B-----------------------|----------------------------------------12----|-------------
G--------------12----12-|-14-12----12-14-16-14-12-11-12-14-12-14----14-|-12-14-12-11-
D--12-16-14-16----16----|-------16-------------------------------------|-------------
A-----------------------|----------------------------------------------|-------------
E-----------------------|----------------------------------------------|-------------
B-----------------------|----------------------------------------------|-------------

E--------------------------------------|-------------------------------------12-14-15-
B--------------------14----------------|-------------12-14-15-14-12-14-15-15----------
G--14-12-14-16-14-16----16-14-16-14-12-|-11-12-14-14----------------------------------
D--------------------------------------|----------------------------------------------
A--------------------------------------|----------------------------------------------
E--------------------------------------|----------------------------------------------
B--------------------------------------|----------------------------------------------

E--14-12----------15-17-19b21--r-----|-------------|-----------|-------------|------
B--------15-17-19--------------------|-------------|-----------|-------------|------
G------------------------------------|-------------|-----------|-------------|------
D------------------------------------|-------------|-----------|-------------|------
A------------------------------------|-------------|-----------|-------------|------
E------------------------------------|-3~-----/5~--|-----/7~---|---/9~------|-3~---
B------------------------------------|-------------|-----------|-------------|------

E---------|-----------|-------------|-------------|-----------|-------------|-------
B---------|-----------|-------------|-------------|-----------|-------------|-------
G---------|-----------|-------------|-------------|-----------|-------------|-------
D---------|-----------|-------------|-------------|-----------|-------------|-------
A---------|-----------|---/7~-------|-------------|-----------|-------------|-------
E----/5~--|-----/7~---|---/9~------|-3~-----/5~--|-----/7~---|---/9~------|-3~----
B---------|-----------|-------------|-------------|-----------|-------------|-------
                                                  
E--------|-----------|-------------|------------|-
B--------|-----------|-------------|------------|-
G--------|-----------|-------------|------------|-
D--------|-----------|-------------|------------|-
A--------|-----------|---/7~-------|--9~-------|-
E---/5~--|-----/7~---|---/9~------|--7~-------|-
B--------|-----------|-------------|------------|-

E|-------------------------------|-------------------------------|-------------------
B|-------------------------------|-------------------------------|-------------------
G|-------------------------------|-------------------------------|-------------------
D|-------------------------------|-------------------------------|-------------------
A|-------------------------------|-------------------------------|-------------------
E|-5-7-----5-7-------------------|-5-7-----5-7-------------------|-5-7-----5-7-------
B|-----0-0-----0-0-0-0-0-0--0-0--|-----0-0-----0-0-0-0-0-0--0-0--|-----0-0-----0-0-0-
                                                 The higher notes are played 
								 with a 2nd guitar
E--------------|-------------------------------|-------------------------------|-----
B--------------|-------------------------------|-------------------------------|-----
G--------------|-------------------------------|-------------------------------|-----
D--------------|-------------------------------|-------------------------------|-----
A--------------|-------------------------------|-4-5-----4-5-------------------|-7-9-
E--------------|-5-7-----7-9-------------------|-5-7-----5-7-------------------|-5-7-
B--0-0-0--0-0--|-----0-0-----0-0-0-0-0-0--0-0--|-----0-0-----0-0-0-0-0-0--0-0--|-----

E----------------------------|-------------------------------|-----------------------
B----------------------------|-------------------------------|-----------------------
G----------------------------|-------------------------------|-6-7-----6-7-----------
D----------------------------|-7-9-----7-9-------------------|-----------------------
A------7-9-------------------|-------------------------------|-----------------------
E------5-7-------------------|-5-7-----5-7-------------------|-5-7-----5-7-----------
B--0-0-----0-0-0-0-0-0--0-0--|-----0-0-----0-0-0-0-0-0--0-0--|-----0-0-----0-0-0-0-0-
                          SOLO
E----------|------------|---------|--------------|-------------|-------------|------
B----------|------------|---------|--------------|-------------|-------------|------
G----------|------------|---------|--------------|-------------|-------------|------
D----------|------------|---------|--------------|-------------|-------------|------
A----------|-9---9-----|---------|---------/5-4-|-2-0-2-------|-------------|------
E----------|-7---7-----|---------|-2-3-2--------|------/2-----|-0-2-3-2-----|------
B--0--0-0--|------------|---------|--------------|-------------|---------3-2-|-0----

E------|------------------|-------------|--------------|-----------------------------
B------|------------------|-------------|--------------|-----------------------------
G------|------------------|-------------|--------------|-----------------------------
D------|-----------/12-11-|-8-7-9/4-----|--------------|-----------------------------
A------|------------------|-------------|--------------|-----------------------------
E------|-0-2-3-2---/10--9-|-7-5-7/2-----|-0-2-3-----2--|-7-5--------7-5--------7-5---
B------|------------------|-------------|-------2-3----|-----7-0--0-----7-0--0-----7-

E---|-------------------------------|-------------------------------|----------------
B---|-------------------------------|-------------------------------|----------------
G---|-------------------------------|-------------------------------|----------------
D---|-------------------------------|-------------------------------|-------9------7-
A---|-------------------------------|-------------------------------|-10------9------
E---|-7-5--------7-5--------7-5-----|-7-5--------7-5--------7-5-----|----10-----10---
B-0-|-----7-0--0-----7-0--0-----7-0-|-----7-0--0-----7-0--0-----7-0-|----------------
				KEY SOLO
E--------------------||--------------------------------|-----------------------------
B--------------------||--------------------------------|-----------------------------
G--------------------||*-------------------------------|-----------------------------
D------5-----4-------||--------------------------------|-----------------------------
A--7-----5-----4-----||*-------------------------------|-----------------------------
E----7-----5------5--||--7-5--------7-5--------7-5-----|-7-5--------7-5--------7-5---
B--------------------||------0-0--0-----0-0--0-----0-0-|-----0-0--0-----0-0--0-----0-

E---|-------------------------------|-------------------------------|----------------
B---|-------------------------------|-------------------------------|----------------
G---|-------------------------------|-------------------------------|----------------
D---|-------------------------------|-------------------------------|----------------
A---|-------------------------------|-------------------------------|----------------
E---|-7-5--------7-5--------7-5-----|-7-5--------7-5--------7-5-----|----------------
B-0-|-----0-0--0-----0-0--0-----0-0-|-----0-0--0-----0-0--0-----0-0-|-5-3-2-0--0-5-3-

E----------------|-------------------------------|-------------------------------|---
B----------------|-------------------------------|-------------------------------|---
G----------------|-------------------------------|-------------------------------|---
D----------------|-------------------------------|-------------------------------|---
A----------------|-------------------------------|-------------------------------|---
E----------------|-------------------------------|-------------------------------|---
B-2-0--0-5-3-2-0-|-5-3-2-0--0-5-3-2-0--0-5-3-2-0-|-5-3-2-0--0-5-3-2-0--0-5-3-2-0-|-5-
                               x 5
E-------------------------------||-------------|------------|-------------|--------|-
B-------------------------------||-------------|------------|-------------|--------|-
G------------------------------*||-------------|------------|-------------|--------|-
D-------------------------------||-------------|------------|-------------|--------|-
A------------------------------*||-------------|------------|-------------|--------|-
E-------------------------------||-0-2-3-2~---/|-7-5/72~---|-0-2-3-2~--0-|--------|-
B--3-2-0--0-5-3-2-0--0-5-3-2-0--||-------------|------------|-------------|--------|-

E|-------------|------------|--------------|-------------|----------------|---------
B|-------------|------------|--------------|-------------|----------------|---------
G|-------------|------------|--------------|-------------|----------------|---------
D|-------------|------------|--------------|-------------|----------------|---------
A|------------/|-5-4-2------|--------------|-------------|-----------/5-4-|-2-0-2---
E|-0-2-3-2~----|-------2~---|-0-2-3-----2--|-------------|-0-2-3-2--------|------/2-
B|-------------|------------|-------2-3----|-0----/-12~--|----------------|---------

E------|-------------|----------|------------------|-------------|--------------|---
B------|-------------|----------|------------------|-------------|--------------|---
G------|-------------|----------|------------------|-------------|--------------|---
D------|-------------|----------|-----------/12-11-|-8-7-9/4-----|--------------|---
A------|-------------|----------|------------------|-------------|--------------|---
E------|-0-2-3-2-----|----------|-0-2-3-2---/10--9-|-7-5-7/2-----|-0-2-3-----2--|-7p
B------|---------3-2-|-0--------|------------------|-------------|-------2-3----|---

E--------------------------------|---------------------------------|-----------------
B--------------------------------|---------------------------------|-----------------
G--------------------------------|-----------------7-----9---------|-----------------
D--------------------------------|-------------------7-9---7-9-----|-----------------
A--------------------------------|---------------------------------|-----------------
E--0-------------7p0-------------|-7p0-----------------------------|-7p0-------------
B----7p0-5-3-0-0-----7p0-5-3-0-0-|-----7p0-5-3-0-0-------------0-0-|-----7p0-5-3-0-0-

E------------------|---------------------------------|-------------------------------
B------------------|---------------------------------|-------------------------------
G------------------|-------7-----9p7---7-------------|-------------------------------
D------------------|-9-7-9---7-9-----9---9-7-9-7-----|-------------------------------
A------------------|-----------------------------9-7-|-------------------------------
E--7p0-------------|---------------------------------|-7p0-------------7p0-----------
B------7p0-5-3-0-0-|---------------------------------|-----7p0-5-3-0-0-----7p0-5-3-0-

E----|---------------------------------|---------------------------------|-----------
B----|---------------------------------|---------------------------------|-----------
G----|-----------------7-----9---------|---------------------------------|-----------
D----|-------------------7-9---7-9-----|---------------------------------|-------9---
A----|---------------------------------|---------------------------------|-10------9-
E----|-7p0-----------------------------|-7p0-------------7p0-------------|----10-----
B--0-|-----7p0-5-3-0-0-------------0-0-|-----7p0-5-3-0-0-----7p0-5-3-0-0-|-----------

E-------------------------|-
B-------------------------|-
G-------------------------|-
D-----7-----5-----4-------|-
A-------7-----5-----4-----|-
E--10-----7-----5------5--|-
B-------------------------|-

E|---------------------------------------|-----------------------------------------|-
B|-12-----------------12-----------------|-12-----------------15-14-12-0---10-12---|-
G|----9-11---9-----------9-11---9--------|----9-11---9-------------------9---------|-
D|---------9---12-9-9---------9---12-9-9-|---------9---12-9-9--------------------9-|-
A|---------------------------------------|-----------------------------------------|-
E|---------------------------------------|-----------------------------------------|-
B|---------------------------------------|-----------------------------------------|-

E|---------------------------------------|----------------------------
comments
print report bad tab
3 comments total.
0 reply
kuvisit666 wrote on March 16 2005, 12:00 am

o man if You tabbed that You're awesome!

0 reply
shoebox_of_lies wrote on February 16 2006, 03:17 pm

sorry, i think you got the wrong song...

0 reply
Skater901 wrote on February 28 2007, 10:41 pm

I thought there was only 1 guitar in Liquid Tension Experiment and the guy who does two-handed tapping on the 12-string?

Oh and is this Acid Rain or not?

I want to post or [tab]
guest
You may want to rate the tab now too:
select rating
Please do not post tabs as comments. Select "correction" instead!