Oops, an error
Loading. Please wait.

Acid Rain Tab

ver2
ver2

Whole song

More versions @911Tabs.com
16,064 views 36 this week
6 commentsread comments
1 2 3 4 5
excellent!
x 5
add to favorites launch autoscroll
font size
0
reset
Autoscroll
+/-
esc
set tempo
stop
Contributor
Difficulty
advanced
WARNING: You are trying to view
                                    content from Ultimate-Guitar.com
                                    in an unauthorized application,
                                    which is prohibited.

                                    Please use an official Ultimate
                                    Guitar Tabs application for iPhone,
                                    iPad or Android to access legitimate
                                    chords, guitar, bass, and drum tabs
                                    from Ultimate-Guitar.com database.

                                    Type "ultimate guitar tabs" in Apple
                                    App Store's or Android Market's
                                    search to find the application.
Gtr I (B E A D G B E) - 'Untitled'
Gtr II (B E A D G B E) - 'Untitled'
Gtr III (E A D G B E) - 'Untitled'
Gtr IV (B E A D G B E) - 'Untitled'


 Intro
  Q=145
  N.C.
 4/4
  Gtr I
  PM----------------------------------------------|
  S S S S S S S S S S S S S S S S   S S S S S S S S S S S S S S S S
|---------------------------------|---------------------------------|
|---------------------------------|---------------------------------|
|---------------------------------|---------------------------------|
|---------------------------------|---------------------------------|
|---------------------------------|-----------------5p0---7---------|
|-7-0-------------7-0-------------|-7-0-----------------7---5h7-----|
|-----7-0-5-3-0-0-----7-0-5-3-0-0-|-----7-0-5-3-0-0-------------0-0-|


  PM----------------------------|
  S S S S S S S S S S S S S S S S   S S S S S S S S S S S S S S S S
|---------------------------------|---------------------------------|
|---------------------------------|---------------------------------|
|---------------------------------|-------7-----9p7---7-------------|
|---------------------------------|-9-7-9---7h9-----9---9-7-9-7-----|
|---------------------------------|-----------------------------9-7-|
|-7-0-------------7-0-------------|---------------------------------|
|-----7-0-5-3-0-0-----7-0-5-3-0-0-|---------------------------------|
|
| Gtr II
| W                                 S S S S S S S S S S S S S S S S
|---------------------------------|---------------------------------|
|---------------------------------|---------------------------------|
|---------------------------------|---------------------------------|
|---------------------------------|---------------------------------|
|---------------------------------|-------5-----7p5---5-------------|
|---------------------------------|-7-5-7---5h7-----7---7-5-7-5-----|
|---------------------------------|-----------------------------7-5-|


  $
  PM----------------------------------------------|
  S S S S S S S S S S S S S S S S   S S S S S S S S S S S S S S S S
|---------------------------------|---------------------------------|
|---------------------------------|---------------------------------|
|---------------------------------|---------------------------------|
|---------------------------------|---------------------------------|
|---------------------------------|-----------------5p0---7---------|
|-7-0-------------7-0-------------|-7-0-----------------7---5h7-----|
|-----7-0-5-3-0-0-----7-0-5-3-0-0-|-----7-0-5-3-0-0-------------0-0-|


                                    Gtrs I, IV
  PM----------------------------|
  S S S S S S S S S S S S S S S S    E  S S S  S S S S S S S S S E
|---------------------------------|--------------------------------|
|---------------------------------|--------------------------------|
|---------------------------------|--------------------------------|
|---------------------------------|-------9------7-----5-----4-----|
|---------------------------------|-10------9------7-----5-----4---|
|-7-0-------------7-0-------------|----10-----10-----7-----5-----5-|
|-----7-0-5-3-0-0-----7-0-5-3-0-0-|--------------------------------|


  Gtr IV    Gtr I    Gtr IV    Gtr I
   S S  S S S  S S S  S S  S S S  S S S
|---------------------------------------|
|-12-----------------12-----------------|
|----9-11---9-----------9-11---9--------|
|---------9---12-9-9---------9---12-9-9-|
|---------------------------------------|
|---------------------------------------|
|---------------------------------------|


  Gtr IV    Gtr I    Gtr IV     Gtr I
   S S  S S S  S S S  S  S  S S S  S  S S
|-----------------------------------------|
|-12-----------------15-14-12-0---10-12---|
|----9-11---9-------------------9---------|
|---------9---12-9-9--------------------9-|
|-----------------------------------------|
|-----------------------------------------|
|-----------------------------------------|


  Gtr IV    Gtr I    Gtr IV    Gtr I
   S S  S S S  S S S  S S  S S S  S S S
|---------------------------------------|
|-12-----------------12-----------------|
|----9-11---9-----------9-11---9--------|
|---------9---12-9-9---------9---12-9-9-|
|---------------------------------------|
|---------------------------------------|
|---------------------------------------|


  Gtr IV     Gtr I    Gtr IV    Gtr I
   S  S  S S S  S S S  S S  S S S  S S S
|----------------------------------------|
|-15-14-12-0---10-----10-----------------|
|------------9-----------9------9-11-----|
|-----------------9-9------12-9------9-9-|
|----------------------------------------|
|----------------------------------------|
|----------------------------------------|


  Gtr IV    Gtr I    Gtr IV    Gtr I
   S S  S S S  S S S  S S  S S S  S S S
|---------------------------------------|
|-12-----------------12-----------------|
|----9-11---9-----------9-11---9--------|
|---------9---12-9-9---------9---12-9-9-|
|---------------------------------------|
|---------------------------------------|
|---------------------------------------|


  Gtr IV    Gtr I    Gtr IV     Gtr I
   S S  S S S  S S S  S  S  S S S  S  S S
|-----------------------------------------|
|-12-----------------15-14-12-0---10-12---|
|----9-11---9-------------------9---------|
|---------9---12-9-9--------------------9-|
|-----------------------------------------|
|-----------------------------------------|
|-----------------------------------------|


                                 To Coda
  Gtr IV    Gtr I    Gtr IV    Gtr I
   S S  S S S  S S S  S S  S S S  S S S
|---------------------------------------|
|-12-----------------12-----------------|
|----9-11---9-----------9-11---9--------|
|---------9---12-9-9---------9---12-9-9-|
|---------------------------------------|
|---------------------------------------|
|---------------------------------------|


  Gtrs I, IV
  T T S S S T T S S S T T S S S T T S S S
|------------------------------------------|
|-0-5-3-0----------------------------------|
|---------4-0-2-4-2-0---2-0----------------|
|---------------------4-----4-0------------|
|-------------------------------7-9-7-5----|
|---------------------------------------9--|
|------------------------------------------|


 Section I
  (B5)
  Gtr I
      PM--|     PM--|     PM|       PM--|     PM--|     PM|
  S S S E S S S S E S S S S S   S S S E S S S S E S S S S S
|-----------------------------|------------------------------|
|-----------------------------|------------------------------|
|-----------------------------|------------------------------|
|-----------------------------|------------------------------|
|-----------------------------|------------------------------|
|-7p5-------7p5-------7p5-----|-7p5-------7p5-------7p5------|
|-----0-0-0-----0-0-0-----0-0-|-----0-0-0-----0-0-0-----0-0--|


                              Gtrs I, IV
      PM--|     PM--|     PM|
  S S S E S S S S E S S S S S    E  S S S  S S S S S S S S S E
|-----------------------------|---------------------------------|
|-----------------------------|---------------------------------|
|-----------------------------|---------------------------------|
|-----------------------------|-------9------7-----5-----4------|
|-----------------------------|-10------9------7-----5-----4----|
|-7p5-------7p5-------7-5-----|----10-----10-----7-----5-----5--|
|-----0-0-0-----0-0-0-----0-0-|---------------------------------|


    Gtr I
        PM--|     PM--|     PM|       PM--|     PM--|     PM|
    S S S E S S S S E S S S S S   S S S E S S S S E S S S S S
||------------------------------|------------------------------||
||------------------------------|------------------------------||
||o-----------------------------|-----------------------------o||
||------------------------------|------------------------------||
||o-7-5-------7-5-------7-5-----|-7-5-------7-5-------7-5-----o||
||------9-7-7-----9-7-7-----9-7-|-----9-7-7-----9-7-7-----9-7--||
||------------------------------|------------------------------||


        PM     PM      PM    PM|      PM
    S S S S  S S  S  S S S S S S S  S S
||--------------------------------------|
||--------------------------------------|
||o-------------------------------------|
||--------------------------------------|
||o----------------------7h9-----9h10---|
||--7h9---9h10---10h12------------------|
||------0------0-------0-----0-0------0-|


      PM     PM        PM  PM|      PM
  S S S S  S S  S  S S S S S S S  S S
|--------------------------------------||
|--------------------------------------||
|-------------------------------------o||
|--------------------------------------||
|----------------------7h9-----9h10---o||
|-7h9---9h10---10h12-------------------||
|-----0------0-------0-----0-0------0--||


         PM       PM       PM     PM|       PM
     S S S  S  S  S  S  S  S S  S S  S S  S S
||--------------------------------------------|
||--------------------------------------------|
||o-------------------------------------------|
||--------------------------------------------|
||o--------------------------7h=9------9h10---|
||---7h9----9h10----10h12---------------------|
||-------0--------0--------0------0--0------0-|
|
|   Gtr III
|    E   S  E     E     S  E    E    E    E
||--10---9-10----10-----9-10---12---10----9---|
||o-------------------------------------------|
||--11---9-11----11-----9-11---12---11----9---|
||----------------------------------------9---|
||o-------------------------------------------|
||--------------------------------------------|


       PM     PM         PM  PM-|      PM
  S  S S S  S S  S  S S  S S S  S S  S S
|-----------------------------------------||
|-----------------------------------------||
|----------------------------------------o||
|-----------------------------------------||
|------------------------7h9------9h10---o||
|-7h=9---9h10---10h12---------------------||
|------0------0-------0------0--0------0--||
|
| S  S S S  E    S  E    E   E.      S S
|---10---9-10----9-10---12---9-------9-9--||
|----------------------------------------o||
|---11---9-11----9-11---12---9-------9-9--||
|-9----9---------9------------------------||
|----------------------------------------o||
|-----------------------------------------||


    B5                                           D5
    Gtr I
     W                        +H                 H
||--------------------------|--------------------------------|
||--------------------------|--------------------------------|
||o-------------------------|--------------------------------|
||--------------------------|--------------------------------|
||o-------------------------|--------------------------------|
||---2----------------------|-(2)----------------5-----------|
||---0----------------------|-(0)----------------3-----------|
|
|    E S  E  E S  E  E  E E    S   S S S  E S  E    E E. S S
||--10-9-10-10-9-10-12-10-9-|-----10---9-10-9-10---12-9--9-9-|
||o-------------------------|--------------------------------|
||--11-9-11-11-9-11-12-11-9-|-----11---9-11-9-11---12-9--9-9-|
||------------------------9-|--9-----9------9----------------|
||o-------------------------|--------------------------------|
||--------------------------|--------------------------------|


  E5                                           F#5
   W                        +H                 H
|-------------------------|--------------------------------|
|-------------------------|--------------------------------|
|-------------------------|--------------------------------|
|-------------------------|--------------------------------|
|-------------------------|--------------------4-----------|
|--7----------------------|-(7)----------------2-----------|
|--5----------------------|-(5)----------------------------|
|
|  E S  E  E S  E  E  E E    S   S S S  E S  E    E E. S S
|-10-9-10-10-9-10-12-10-9-|-----10---9-10-9-10---12-9--9-9-|
|-------------------------|--------------------------------|
|-11-9-11-11-9-11-12-11-9-|-----11---9-11-9-11---12-9--9-9-|
|-----------------------9-|--9-----9------9----------------|
|-------------------------|--------------------------------|
|-------------------------|--------------------------------|


  G5                                           A5            F#5
   W                        +H                 H             W
|-------------------------|--------------------------------|---------------------------|
|-------------------------|--------------------------------|---------------------------|
|-------------------------|--------------------------------|---------------------------|
|-------------------------|--------------------------------|---------------------------|
|--5----------------------|-(5)----------------7-----------|---------------------------|
|--3----------------------|-(3)----------------5-----------|-9-------------------------|
|-------------------------|--------------------------------|-7-------------------------|
|
|  E S  E  E S  E  E  E E    S   S S S  E S  E    E E. S S   S  E  S E. E  S  E.  E  S
|-10-9-10-10-9-10-12-10-9-|-----10---9-10-9-10---12-9--9-9-|---------9--9-10-12--12-10-|
|-------------------------|--------------------------------|---11-12-------------------|
|-11-9-11-11-9-11-12-11-9-|-----11---9-11-9-11---12-9--9-9-|-9-------9--9-11-12--12-11-|
|-----------------------9-|--9-----9------9----------------|---12-14-------------------|
|-------------------------|--------------------------------|---------------------------|
|-------------------------|--------------------------------|---------------------------|


 1.                                     2.
  A#5                                   A#5
   W                                     W
|------------------------------------||--------------------------------------
|------------------------------------||--------------------------------------
|-----------------------------------o||--------------------------------------
|------------------------------------||--------------------------------------
|-/8--------------------------------o||-/8-----------------------------------
|-/6---------------------------------||-/6-----------------------------------
|------------------------------------||--------------------------------------
|
|  E. E  S  E.  +S   S  S S  S  S S      E.  E  S  E.  S  S  S  S  S  S  S
|--9--9------------------------------||-15--15-17-18--14-12------------------
|-------12-11--(11)-----------------o||---------------------14-11------------
|--9--9-------------12-11-9----------||-15--15-17-18--------------11---------
|-------14-12--(12)---------12-11-9--||------------------------------14-11---
|-----------------------------------o||--------------------------------------
|------------------------------------||--------------------------------------


    B5          D5           E5           G5
   6/8                      5/8
    E   Q        E  Q         E   Q        Q
||-------------------------|----------------------|
||-------------------------|----------------------|
||o------------------------|----------------------|
||-------------------------|----------------------|
||o------------------------|--7-----------10------|
||--7-----------10---------|----------------------|
||-------------------------|----------------------|
|
|   S E    E  S  E.    E S    S E    E  E     S E
||-------------------------|----------------------|
||o------------------------|----------------------|
||---------------9-------9-|-11-9---------------9-|
||--9-9---11-12-12----12---|-14-----12-------12---|
||o-9-----------12---------|-14--------12---------|
||--7-----------10---------|-12-------------------|


  B5          D5           F#5       A5         B5         C#5
 6/8                      4/4
  E   Q        E  Q         Q         Q          Q         Q
|------------------------|----------------------------------------------||
|------------------------|----------------------------------------------||
|------------------------|---------------------------------------------o||
|------------------------|----------------------------------------------||
|------------------------|---------------------------------------------o||
|-7-----------10---------|-----------------------7---------9------------||
|------------------------|--8--------10---------------------------------||
|
| S E    E  S  E.    E S    S S  S S  S  S S  S  S  S S  S S  S  S  S
|------------------------|----------------------------9-10-9------------||
|------------------------|-------------------------12--------12----12--o||
|--------------9-------9-|-11-9----9------------11--------------11------||
|-9-9---11-12-12----12---|------12---12-11-9-11-------------------------||
|-9-----------12---------|---------------------------------------------o||
|-7-----------10---------|----------------------------------------------||


 Section II
  G5                                                      E5                         F#5
   W                                                       H                          H
|-------------------------------------------------------|--------------------------------------------------|
|-------------------------------------------------------|--------------------------------------------------|
|-------------------------------------------------------|--------------------------------------------------|
|-------------------------------------------------------|--------------------------------------------------|
|--5----------------------------------------------------|--2--------------------------4--------------------|
|--3----------------------------------------------------|--0--------------------------2--------------------|
|-------------------------------------------------------|--------------------------------------------------|
|
| Gtr IV
|                                                                                                       ~~
|  S  S  S  S  S  S  S  S  S  S  S  S  T  T  T  T  S  S    S  S  S  T  T  S  S  S  S  S  T  T  T  T  S  Q
|-------------------------------14-17-15h17p15-14-------|-14-----------------------------------------------|
|-15-14----14-------------14-15-------------------17----|----17-15-17h19-15----15-14-----------------------|
|-------16----16-14----16----------------------------16-|-------------------16-------16-14-14h16-14--------|
|-------------------17----------------------------------|-------------------------------------------16-12--|
|-------------------------------------------------------|--------------------------------------------------|
|-------------------------------------------------------|--------------------------------------------------|
|-------------------------------------------------------|--------------------------------------------------|


  G5                                   A                   B5
   H.                                   Q                   W
|--------------------------------------------------------|-------------------------------------------|
|--------------------------------------------------------|-------------------------------------------|
|--------------------------------------------------------|-------------------------------------------|
|--------------------------------------------------------|-------------------------------------------|
|--5------------------------------------7----------------|--9----------------------------------------|
|--3------------------------------------5----------------|--7----------------------------------------|
|--------------------------------------------------------|-------------------------------------------|
|
|  S   S  S  S  S  S  S  S  S  S  S  S  T  T  T  T  S  S    S  S  S  S  S  S  S  S  S  S  E  S  S  E
|--------------------------------14-17-15h17p15-14-------|-19-------17-------14----------------------|
|-15--14----14-------------14-15-------------------17----|----------------------------17----19-17-15-|
|--------16----16-14----16----------------------------16-|----19-18----18-16----16-14----14----------|
|--------------------17----------------------------------|-------------------------------------------|
|--------------------------------------------------------|-------------------------------------------|
|--------------------------------------------------------|-------------------------------------------|
|--------------------------------------------------------|-------------------------------------------|


  G5
   W
|-------------------------------------------------------|
|-------------------------------------------------------|
|-------------------------------------------------------|
|-------------------------------------------------------|
|--5----------------------------------------------------|
|--3----------------------------------------------------|
|-------------------------------------------------------|
|
|  S  S  S  S  S  S  S  S  S  S  S  S  T  T  T  T  S  S
|-------------------------------14-17-15h17p15-14-------|
|-15-14----14-------------14-15-------------------17----|
|-------16----16-14----16----------------------------16-|
|-------------------17----------------------------------|
|-------------------------------------------------------|
|-------------------------------------------------------|
|-------------------------------------------------------|


  E5                         F#5
   H                          H
|--------------------------------------------------|
|--------------------------------------------------|
|--------------------------------------------------|
|--------------------------------------------------|
|--2--------------------------4--------------------|
|--0--------------------------2--------------------|
|--------------------------------------------------|
|
|                                               ~~
|  S  S  S  T  T  S  S  S  S  S  T  T  T  T  S  Q
|-14-----------------------------------------------|
|----17-15-17h19-15----15-14-----------------------|
|-------------------16-------16-14-14h16-14--------|
|-------------------------------------------16-12--|
|--------------------------------------------------|
|--------------------------------------------------|
|--------------------------------------------------|


  G5                                   D5          C#5
   H.                                   E           E
|--------------------------------------------------------|
|--------------------------------------------------------|
|--------------------------------------------------------|
|---------------------------------------7-----------6----|
|--5------------------------------------5-----------4----|
|--3-----------------------------------------------------|
|--------------------------------------------------------|
|
|  S   S  S  S  S  S  S  S  S  S  S  S  T  T  T  T  S  S
|--------------------------------14-17-15h17p15-14-------|
|-15--14----14-------------14-15-------------------17----|
|--------16----16-14----16----------------------------16-|
|--------------------17----------------------------------|
|--------------------------------------------------------|
|--------------------------------------------------------|
|--------------------------------------------------------|


  B5
   W
|-------------------------------------------------------------|
|-------------------------------------------------------------|
|-------------------------------------------------------------|
|--4----------------------------------------------------------|
|--2----------------------------------------------------------|
|-------------------------------------------------------------|
|-------------------------------------------------------------|
|
|                                                        ~~
|  |------6-------|  |------6-------|  |------6-------|
|  S  S  S  S  S  S  S  S  S  S  S  S  S  S  S  S  S  S  Q
|----------------------------12-14-17-14-17-19-17-19-21-19----|
|-12-14-15-14-15-17-15-17-19----------------------------------|
|-------------------------------------------------------------|
|-------------------------------------------------------------|
|-------------------------------------------------------------|
|-------------------------------------------------------------|
|-------------------------------------------------------------|


 Guitar break
  Wx4
|--------|
|--------|
|--------|
|--------|
|--------|
|--------|
|--------|


   S  S  S  S  S  S  S  S  S  S  S  S  S  S  S  S
|-------------------------------------------------|
|-------------------12-17-------------------12-17-|
|-------12-16-------------------12-16-------------|
|-12-14-------12-14-------12-14-------12-14-------|
|-------------------------------------------------|
|-------------------------------------------------|
|-------------------------------------------------|


   S  S  S  S  S  S  S  S  S  S  S  S  S  S  S  S
|-------12-17-19-15-------------------------------|
|-------------------------------------------------|
|-12-14-------------18-16-19-18-17-16-------------|
|-------------------------------------19-18-17-16-|
|-------------------------------------------------|
|-------------------------------------------------|
|-------------------------------------------------|


   S  S  S  S  S  S  S  S  S  S  S  S  S  S  S  S
|-------------------------15-19-17-15-------------|
|----15-19-15-17-15----17-------------19-17-15-14-|
|-------------------18----------------------------|
|-17----------------------------------------------|
|-------------------------------------------------|
|-------------------------------------------------|
|-------------------------------------------------|


   |--3--|  |--3--|
   S  S  S  S  S  S  S  S  S  S  S  S  S  S  S  S  S  S
|--------------------------------------------------------|
|-17p15p14-17p15p14----------------15----14-12-----------|
|-------------------17-16-15-14-12----12-------14-12-----|
|----------------------------------------------------16--|
|--------------------------------------------------------|
|--------------------------------------------------------|
|--------------------------------------------------------|


   S  S  S  S  S  S  S  S  S  S  S  S  S  S  S  S
|-------------------------------------------------|
|-------------------------------------------------|
|----------11----11-12-11----11----------------12-|
|-14-12-14----14----------14----14-12-16-14-16----|
|-------------------------------------------------|
|-------------------------------------------------|
|-------------------------------------------------|


   S  S  S  S  S  S  S  S  S  S  S  S  S  S  S  S
|-------------------------------------------------|
|-------------------------------------------------|
|----12-14-12----12----------------14----14-16-14-|
|-16----------16----16-14-17-16-17----17----------|
|-------------------------------------------------|
|-------------------------------------------------|
|-------------------------------------------------|


   S  S  S  S  S  S  S  S  S  S  S  S  S  S  S  S
|-------------------------------------------------|
|-------------------------------------------------|
|----14----------------16----16-18-16----16-------|
|-17----17-16-19-17-19----19----------19----19-17-|
|-------------------------------------------------|
|-------------------------------------------------|
|-------------------------------------------------|


                                                                           ~~
   T  T  T  T  T  T  T  T  T  T  T  T  T  T  T  T  T  T  T  T  T  T  T  T  Q
|----------------------------------------12-14-15-14-12----------15-17-21-19--|
|----------------12-14-15-14-12-14-15-15----------------15-17-19--------------|
|-12-11-12-14-14--------------------------------------------------------------|
|-----------------------------------------------------------------------------|
|-----------------------------------------------------------------------------|
|-----------------------------------------------------------------------------|
|-----------------------------------------------------------------------------|


   S  S  S  S  S  S  S  S  S  S  S  S  S  S  S  S
|-------------------------------------------------|
|-------------------12-17-------------------12-17-|
|-------12-16-------------------12-16-------------|
|-12-14-------12-14-------12-14-------12-14-------|
|-------------------------------------------------|
|-------------------------------------------------|
|-------------------------------------------------|
|
| Gtr IV
|  S  S  S  S  S  S  S  S  S  S  S  S  S  S  S  S
|-------------------------------------------------|
|-------------------17-20-------------------17-20-|
|-------16-21-------------------16-21-------------|
|-16-17-------16-17-------16-17-------16-17-------|
|-------------------------------------------------|
|-------------------------------------------------|
|-------------------------------------------------|


   S  S  S  S  S  S  S  S  S  S  S  S  S  S  S  S
|-------12-17-19-15-------------------------------|
|-------------------------------------------------|
|-12-14-------------18-16-19-18-17-16-------------|
|-------------------------------------19-18-17-16-|
|-------------------------------------------------|
|-------------------------------------------------|
|-------------------------------------------------|
|
|  S  S  S  S  S  S  S  S  S  S  S  S  S  S  S  S
|-------17-21-22-19-------------------------------|
|-------------------------24-23-22-20-------------|
|-18-21-------------21-19-------------23-22-21-20-|
|-------------------------------------------------|
|-------------------------------------------------|
|-------------------------------------------------|
|-------------------------------------------------|


   S  S  S  S  S  S  S  S  S  S  S  S  S  S  S  S
|-------------------------15-19-17-15-------------|
|----15-19-15-17-15----17-------------19-17-15-14-|
|-------------------18----------------------------|
|-17----------------------------------------------|
|-------------------------------------------------|
|-------------------------------------------------|
|-------------------------------------------------|
|
|  S  S  S  S  S  S  S  S  S  S  S  S  S  S  S  S
|-------------------------19-22-21-19-17----------|
|----19-22-19-20-19----20----------------20-19-17-|
|-19----------------21----------------------------|
|-------------------------------------------------|
|-------------------------------------------------|
|-------------------------------------------------|
|-------------------------------------------------|


   |--3--|  |--3--|
   S  S  S  S  S  S  S  S  S  S  S  S  S  S  S  S  S  S
|--------------------------------------------------------|
|-17p15p14-17p15p14----------------15----14-12-----------|
|-------------------17-16-15-14-12----12-------14-12-----|
|----------------------------------------------------16--|
|--------------------------------------------------------|
|--------------------------------------------------------|
|--------------------------------------------------------|
|
|  |------6-------|
|  S  S  S  S  S  S  S  S  S  S  S  S  S  S  S  S  S  S
|--------------------------------------------------------|
|-20-19-17-20-19-17----------------19----17-15-----------|
|-------------------20-19-18-17-16----16-------18-16-14--|
|--------------------------------------------------------|
|--------------------------------------------------------|
|--------------------------------------------------------|
|--------------------------------------------------------|


   S  S  S  S  S  S  S  S  S  S  S  S  S  S  S  S
|-------------------------------------------------|
|-------------------------------------------------|
|----------11----11-12-11----11----------------12-|
|-14-12-14----14----------14----14-12-16-14-16----|
|-------------------------------------------------|
|-------------------------------------------------|
|-------------------------------------------------|
|
|  S  S  S  S  S  S  S  S  S  S  S  S  S  S  S  S
|-------------------------------------------------|
|-------------------------------------------------|
|----------14----14-16-14----14----------------16-|
|-17-16-17----17----------17----17-16-19-17-19----|
|-------------------------------------------------|
|-------------------------------------------------|
|-------------------------------------------------|


   S  S  S  S  S  S  S  S  S  S  S  S  S  S  S  S
|-------------------------------------------------|
|-------------------------------------------------|
|----12-14-12----12----------------14----14-16-14-|
|-16----------16----16-14-17-16-17----17----------|
|-------------------------------------------------|
|-------------------------------------------------|
|-------------------------------------------------|
|
|  S  S  S  S  S  S  S  S  S  S  S  S  S  S  S  S
|-------------------------------------------------|
|-------------------------------------------------|
|----16-18-16----16----------------18----18-19-18-|
|-19----------19----19-17-21-19-21----21----------|
|-------------------------------------------------|
|-------------------------------------------------|
|-------------------------------------------------|


   S  S  S  S  S  S  S  S  S  S  S  S  S  S  S  S
|-------------------------------------------------|
|-------------------------------------------------|
|----14----------------16----16-18-16----16-------|
|-17----17-16-19-17-19----19----------19----19-17-|
|-------------------------------------------------|
|-------------------------------------------------|
|-------------------------------------------------|
|
|  S  S  S  S  S  S  S  S  S  S  S  S  S  S  S  S
|-------------------------------------------------|
|-------------------------------------------------|
|----18----------------19----19-21-19----19-------|
|-21----21-19-23-21-23----23----------23----23-21-|
|-------------------------------------------------|
|-------------------------------------------------|
|-------------------------------------------------|


                                                                                                               ~~
   T  T     T     T  T  T     T     T  T  T     T     T  T  T     T     T  T  T     T     T  T  T     T     T  Q
|----------------------------------------------------------12----14----15-14-12----------------15----17----21-19----|
|----------------------12----14----15-14-12----14----15-15-------------------------15----17-19----------------------|
|-12-11----12----14-14----------------------------------------------------------------------------------------------|
|-------------------------------------------------------------------------------------------------------------------|
|-------------------------------------------------------------------------------------------------------------------|
|-------------------------------------------------------------------------------------------------------------------|
|-------------------------------------------------------------------------------------------------------------------|
|
|  |--------------6--------------|     |--------------6--------------|     |--------------6--------------|
|  S     S     S     S     S     S     S     S     S     S     S     S     S     S     S     S     S     S     Q
|-------------------------------------------------------------------------------------------21----22----24----22----|
|-------------------------------------------------------20----22----24----20----22----24----------------------------|
|-------------------19----21----23----19----21----23----------------------------------------------------------------|
|-19----21----23----------------------------------------------------------------------------------------------------|
|-------------------------------------------------------------------------------------------------------------------|
|-------------------------------------------------------------------------------------------------------------------|
|-------------------------------------------------------------------------------------------------------------------|


   Section III
    G5
   3/4
     ~~~~~~~~~~~~~~~~~~~~~~~~~~~~~~~~~~~~~~~~~~~~~~~~
     H.
||--------------------------------------------------|
||--------------------------------------------------|
||o-------------------------------------------------|
||--------------------------------------------------|
||o-------------------------------------------------|
||---3----------------------------------------------|
||--------------------------------------------------|
|
|    T       T       T       T       T       T
|    |-----6------|  |-----6------|  |-----6------|
|    S  S S  S  S S  S  S S  S  S S  S  S S  S  S S
||--------------------------------------------------|
||--15p10p8-14p10p8-12p10p8-14p10p8-15p10p8-17p10p8-|
||o-------------------------------------------------|
||--------------------------------------------------|
||o-------------------------------------------------|
||--------------------------------------------------|
||--------------------------------------------------|


  A5
 ~~~~~
   H.
|--------------------------------------------------|
|--------------------------------------------------|
|--------------------------------------------------|
|--------------------------------------------------|
|--------------------------------------------------|
|-/5-----------------------------------------------|
|--------------------------------------------------|
|
|  T       T       T       T       T       T
|  |-----6------|  |-----6------|  |-----6------|
|  S  S S  S  S S  S  S S  S  S S  S  S S  S  S S
|--------------------------------------------------|
|-15p10p8-14p10p8-12p10p8-14p10p8-15p10p8-19p10p8--|
|--------------------------------------------------|
|--------------------------------------------------|
|--------------------------------------------------|
|--------------------------------------------------|
|--------------------------------------------------|


  B5
   ~~~~~~~~~~~~~~~~~~~~~~~~~~~~~~~~~~~~~~~~~~~~~~~~~~~~~
   H.
|------------------------------------------------------|
|------------------------------------------------------|
|------------------------------------------------------|
|------------------------------------------------------|
|------------------------------------------------------|
|-/7---------------------------------------------------|
|------------------------------------------------------|
|
|  T        T        T        T        T        T
|  |------6-------|  |------6-------|  |------6------|
|  S  S  S  S  S  S  S  S  S  S  S  S  S  S  S  S  S S
|----------------------------------------------19p12p7-|
|-17p12p10-15p12p10-14p12p10-15p12p10-17p12p10---------|
|------------------------------------------------------|
|------------------------------------------------------|
|------------------------------------------------------|
|------------------------------------------------------|
|------------------------------------------------------|


  C#5
 ~~~~~
   Q.                     +E       +Q
|-------------------------------------------------------|
|-------------------------------------------------------|
|-------------------------------------------------------|
|-------------------------------------------------------|
|-------------------------------------------------------|
|-/9----------------------(9)------(9)\-----------------|
|-------------------------------------------------------|
|
|  T       T       T       T        T          T
|  |-----6------|  |------6------|  |-------6--------|
|  S  S S  S  S S  S  S S  S  S  S  S    S  S  S  S  S
|-17p12p7-15p12p7-14p12p7-------------------------------|
|-------------------------17p12p10-15p==12p10-14p12p10--|
|-------------------------------------------------------|
|-------------------------------------------------------|
|-------------------------------------------------------|
|-------------------------------------------------------|
|-------------------------------------------------------|


  G5
   ~~~~~~~~~~~~~~~~~~~~~~~~~~~~~~~~~~~~~~~~~~~~~~~~
   H.
|-------------------------------------------------|
|-------------------------------------------------|
|-------------------------------------------------|
|-------------------------------------------------|
|-------------------------------------------------|
|--3----------------------------------------------|
|-------------------------------------------------|
|
|  T       T       T       T       T       T
|  |-----6------|  |-----6------|  |-----6------|
|  S  S S  S  S S  S  S S  S  S S  S  S S  S  S S
|-------------------------------------------------|
|-15p10p8-14p10p8-12p10p8-14p10p8-15p10p8-17p10p8-|
|-------------------------------------------------|
|-------------------------------------------------|
|-------------------------------------------------|
|-------------------------------------------------|
|-------------------------------------------------|


  A5
 ~~~~~
   H.
|--------------------------------------------------|
|--------------------------------------------------|
|--------------------------------------------------|
|--------------------------------------------------|
|--------------------------------------------------|
|-/5-----------------------------------------------|
|--------------------------------------------------|
|
|  T       T       T       T       T       T
|  |-----6------|  |-----6------|  |-----6------|
|  S  S S  S  S S  S  S S  S  S S  S  S S  S  S S
|--------------------------------------------------|
|-15p10p8-14p10p8-12p10p8-14p10p8-15p10p8-19p10p8--|
|--------------------------------------------------|
|--------------------------------------------------|
|--------------------------------------------------|
|--------------------------------------------------|
|--------------------------------------------------|


  B5
   ~~~~~~~~~~~~~~~~~~~~~~~~~~~~~~~~~~~~~~~~~~~~~~~~~~~~~
   H.
|------------------------------------------------------|
|------------------------------------------------------|
|------------------------------------------------------|
|------------------------------------------------------|
|------------------------------------------------------|
|-/7---------------------------------------------------|
|------------------------------------------------------|
|
|  T        T        T        T        T        T
|  |------6-------|  |------6-------|  |------6------|
|  S  S  S  S  S  S  S  S  S  S  S  S  S  S  S  S  S S
|----------------------------------------------19p12p7-|
|-17p12p10-15p12p10-14p12p10-15p12p10-17p12p10---------|
|------------------------------------------------------|
|------------------------------------------------------|
|------------------------------------------------------|
|------------------------------------------------------|
|------------------------------------------------------|


  C#5                                                      B5
                                                          2/4
 ~~~~~~~~~~~~~~~~~~~~~~~~~~~~~
   Q.                     +E       +Q                        Q  Q
|-------------------------------------------------------||---------
|-------------------------------------------------------||---------
|------------------------------------------------------o||---------
|-------------------------------------------------------||---------
|-/7----------------------(7)------(7)\----------------o||---9-----
|-/9----------------------(9)------(9)\-----------------||---7-----
|-------------------------------------------------------||---------
|
|  T       T       T       T        T          T             ~~~
|  |-----6------|  |------6------|  |-------6--------|
|  S  S S  S  S S  S  S S  S  S  S  S    S  S  S  S  S       Q  Q
|-17p12p7-15p12p7-14p12p7-------------------------------||---------
|-------------------------17p12p10-15p==12p10-14p12p10--||-/12-----
|------------------------------------------------------o||---------
|-------------------------------------------------------||---------
|------------------------------------------------------o||---------
|-------------------------------------------------------||---------
|-------------------------------------------------------||---------


   4/4
        PM|     PM--------|   PM|       PM|     PM--------|   PM|
    S S S S S S S S S S S S S S E   S S S S S S S S S S S S S S E
||--------------------------------|--------------------------------||
||--------------------------------|--------------------------------||
||o-------------------------------|-------------------------------o||
||--------------------------------|--------------------------------||
||o-------------------------------|-------------------------------o||
||--5h7-----5h7-------------------|-5h7-----5h7--------------------||
||------0-0-----0-0-0-0-0-0---0-0-|-----0-0-----0-0-0-0-0-0---0-0--||


      PM|     PM--------|   PM|       PM|     PM--------|   PM|
  S S S S S S S S S S S S S S E   S S S S S S S S S S S S S S E
|-------------------------------|-------------------------------|
|-------------------------------|-------------------------------|
|-------------------------------|-------------------------------|
|-------------------------------|-------------------------------|
|-------------------------------|-------------------------------|
|-5h7-----5h7-------------------|-5h7-----5h7-------------------|
|-----0-0-----0-0-0-0-0-0---0-0-|-----0-0-----0-0-0-0-0-0---0-0-|
|
| Gtr II
| S S E   S S H               E   S S E   S S H               E
|-------------------------------|-------------------------------|
|-------------------------------|-------------------------------|
|-------------------------------|-------------------------------|
|-------------------------------|-------------------------------|
|-4s5-----4s5-------------------|-4s5-----4s5-------------------|
|-------------------------------|-------------------------------|
|-------------------------------|-------------------------------|


      PM|     PM--------|   PM|       PM|     PM--------|   PM|
  S S S S S S S S S S S S S S E   S S S S S S S S S S S S S S E   Q  +Q    H
|-------------------------------|-------------------------------|---------------|
|-------------------------------|-------------------------------|---------------|
|-------------------------------|-------------------------------|---------------|
|-------------------------------|-------------------------------|---------------|
|-------------------------------|-------------------------------|-9--(9)\-------|
|-5h7-----5h7-------------------|-5h7-----5h7-------------------|-7--(7)\-------|
|-----0-0-----0-0-0-0-0-0---0-0-|-----0-0-----0-0-0-0-0-0---0-0-|---------------|
|
| S S E   S S H               E   S S E   S S H               E   W
|-------------------------------|-------------------------------|---------------|
|-------------------------------|-------------------------------|---------------|
|-------------------------------|-------------------------------|---------------|
|-------------------------------|-------------------------------|---------------|
|-4s5-----4s5-------------------|-4s5-----4s5-------------------|---------------|
|-------------------------------|-------------------------------|---------------|
|-------------------------------|-------------------------------|---------------|


 Guitar Solo
                                                ~~~~~~~~
  W          H..       e   e. e. e e. S +E      E   +H     Q  T T T T E
|----------|-------------|------------------------|----------------------|
|----------|-------------|------------------------|----------------------|
|----------|-----------7-|-9--9--7-9--9-(9)b9.5-7-|-(7)------------------|
|----------|-------------|------------------------|-----------9-7h9p7-9--|
|----------|-------------|------------------------|----------------------|
|----------|-------------|------------------------|----------------------|
|----------|-------------|------------------------|----------------------|


   ~~~                                ~~                 ~~~~~~~~
  +H.      E E       E  S  S S  S  E  H      H.      S e S   +H.      E. S
|------------------|-----------------------|---------------|---------------|
|------------9b9.5-|--------------10-------|---------------|---------------|
|------------9b9.5p|=7-------9h11----11----|---------------|---------------|
|-(9)--------------|---10s12---------------|-----------7-7-|-(7)------9--7-|
|------------------|-----------------------|---------0-----|---------------|
|------------------|-----------------------|---------------|---------------|
|------------------|-----------------------|---------------|---------------|


      ~                           ~~~~~~~~~~
  S S H    +S   E S S S   S S S E S +E      E Q.     H    E. E E +S
|-----------------------|--------------------------|---------------------|
|-----------------------|--------------------------|---------------------|
|---7-------------------|--------------------------|---------------------|
|-9---9----(9)\---4-7---|--------------------------|---------------------|
|---------------------7-|-5-----7-5-(5)b5.5--------|-----------5-(5)b5.5-|
|-----------------------|---7-5-------------7------|------5--7-----------|
|-----------------------|--------------------------|---------------------|


  S E. +E. S  E Q  E     S E.   +E  +E  +Q   Q
|----------------------|---------------------------|
|----------------------|---------------------------|
|----------------------|---------------------------|
|----------------------|---------------------------|
|----------------------|---------------------------|
|---7--(7)-5-----------|---------------------------|
|------------\5----3b5-|---3b5==(3)-(3)r(3)--3b7===|


                             \1.5
  +Q   +S  E S E.  S +Q     +Q     Q  Q  a E. S
|-------------------------|----------------------|
|-------------------------|----------------------|
|-------------------------|-------------------7--|
|-------------------------|--------------7s9-----|
|-------------------------|----------------------|
|-------------------------|----------------------|
|-(3)r=(3)-0-0-3b5-0-(0)--|-(0)------------------|


   ~~~
                               |-3-|
   H.      Q    E. S S E. +Q   E E E   Q.   S S E      E E E
|-------------|----------------------|--------------------------|
|-10----------|------9p7--(7)------7-|--------------------------|
|-------------|----------------7h9---|-7--------9b10.5-7-9-7b9==|
|-------------|----9-----------------|------9p7-----------------|
|-------------|----------------------|--------------------------|
|-------------|----------------------|--------------------------|
|-------------|----------------------|--------------------------|


  +E  +E  E    +S   S      +Q        +E.  +S
|----------------------------------------------|
|----------------------------------------------|
|-(7)r(7)-9b11r(9)s11b13==(11)b15===(11)-(11)r-|
|----------------------------------------------|
|----------------------------------------------|
|----------------------------------------------|
|----------------------------------------------|


                      |----3----|          |----3----|
  E E  H.            +E   +E   +E   +Q    +E   +E   +E   +E.  +S
|-----------------|-----------------------------------------------|
|-----12b14=======|=(12)-(12)-(12)-(12)--(12)-(12)-(12)-(12)r(12)-|
|-----------------|-----------------------------------------------|
|-x-x-------------|-----------------------------------------------|
|-x-x-------------|-----------------------------------------------|
|-----------------|-----------------------------------------------|
|-----------------|-----------------------------------------------|


                                       |-3-|
   E.  a S +E   a a E +S  a a E. a a E S S S
|---------------------------------------------|
|-10--12p9-(9)-10p9s7-(7)-9p7s5--7p5s3-5p3s2--|
|---------------------------------------------|
|---------------------------------------------|
|---------------------------------------------|
|---------------------------------------------|
|---------------------------------------------|


  ~~                                             ~~~          ~~~
                                                       |-3-|  |-3--|
  Q.   E S S S S Q    +E  S S S S +E    S S S S +Q     Q Q Q  Q  Q Q
|-------------------|--------------------------------|---------------|
|-3----2------------|--------------------------------|---------------|
|--------4-2-----4--|-(4)-2-----4-(4)b6-4-2----------|---------------|
|------------4-2----|-------4-2-------------4-2-(2)--|-4-4s7-[7]-6-7-|
|-------------------|--------------------------------|---------------|
|-------------------|--------------------------------|---------------|
|-------------------|--------------------------------|---------------|


   |-3-| |--3---|   |3|
   Q Q Q Q    Q Q   Q H     +E. +S  S S S S
|-----------------|-------------------------|
|-----------------|-------------------------|
|----7-9-9b10-9-7-|-9-7b9===(7)r(7)-6-----9-|
|-/9--------------|-------------------9-7---|
|-----------------|-------------------------|
|-----------------|-------------------------|
|-----------------|-------------------------|


  +S     +S  S S S S +S     +S  S S S S +S     +S  S S
|------------------------------------------------------|
|------------------------------------------------------|
|-(9)b11r(9)-7-----9-(9)b11r(9)-7-----9-(9)b11r(9)-7---|
|--------------9-7----------------9-7----------------9-|
|------------------------------------------------------|
|------------------------------------------------------|
|------------------------------------------------------|


                 |-3-|
  S S +S     +S  S S S S +S     +S  S S S S +S     +S  S
|--------------------------------------------------------|
|--------------------------------------------------------|
|---9-(9)b11r(9)-7-----9-(9)b11r(9)-7-----9-(9)b11r(9)-7-|
|-7----------------9-7----------------9-7----------------|
|--------------------------------------------------------|
|--------------------------------------------------------|
|--------------------------------------------------------|


           |-3--|      |--3--|
  S S  E  +S  S S  E  +S   S S  E  +S   S  S  S
|-----------------------------------------------|
|-----10-(10)-----13-(13)------14-(14)-------15-|
|-------------9-7---------11-9---------13-11----|
|-9-7-------------------------------------------|
|-----------------------------------------------|
|-----------------------------------------------|
|-----------------------------------------------|


   S  S  E  E  E       H        +Q     H.         +Q    +E.  S  H
|----------------------------|-----------------|-------------------------|
|-15----14-16-16b18==(17)----|-(17)r--22-------|-(22)--(22)-19-22b24r====|
|----12----15-15b17==(16)----|-(16)r-----------|-------------------------|
|----------------------------|-----------------|-------------------------|
|---------------------(0)----|--(0)------------|-------------------------|
|----------------------------|-----------------|-------------------------|
|----------------------------|-----------------|-------------------------|


    |--3---|                                            |---3----|
   +S   S  S  S  S  S  S  S  +S      +S   +S      S  S  E     E  E
|------------------------------------------------------------------|
|-(22)-19----19----------------------------------------------------|
|---------22----19-21----19-(19)b21r(19)-(19)b20-------21b23-21-19-|
|---------------------21-------------------------21-19-------------|
|------------------------------------------------------------------|
|------------------------------------------------------------------|
|------------------------------------------------------------------|


   |-----3------|  |---3----|
   E     E      E  E  E     E  E  S     +S  E E
|-----------------------------------------------|
|-----------------------------------------------|
|-21b22-21pb22r19-21-21b23-19-21-19b21r(19)-0---|
|-----------------------------------------------|
|-----------------------------------------------|
|-----------------------------------------------|
|---------------------------------------------0-|


                     ~~~      ~~~
  H.      +E    E    Q.    E  Q.    S  S
|-----------------|----------------------|
|-----------------|----------------------|
|-----------------|----------------------|
|-------------/11-|-11----12-12----12-12-|
|-----------------|----------------------|
|-----------------|----------------------|
|-0-------(0)-----|----------------------|


                                 |--3--|  |--3--|
   S  S  S  S  S  S  S  S  S  S  S  S  S  E  E  E
|-------------------------------14-14-14-14p10-10--|
|-------------------14-14-14p12--------------------|
|-------13-13-13p11--------------------------------|
|-12p11--------------------------------------------|
|--------------------------------------------------|
|--------------------------------------------------|
|--------------------------------------------------|


                                          ~~
    |--3--|  |--3--|  |--3--|  |--3--|
    E  E  E  E  E  E  E  E  E  E  E  E    Q   +S   S  S  S  S  S  S  +S      +S   S  S  S
|-/17-16-16-16-------------------------|--------------------------------------------------|
|--------------17-17-17-15-15-15-14-14-|-15--(15)-14--------------------------------------|
|--------------------------------------|-------------16-14-------16-(16)b18r(16)-14-------|
|--------------------------------------|-------------------16-14--------------------16-14-|
|--------------------------------------|--------------------------------------------------|
|--------------------------------------|--------------------------------------------------|
|--------------------------------------|--------------------------------------------------|


    ~~~~
          |--3--|  |---3----|
   +Q     E  E  E  E  S  S  E  E.  +S
|--------------------14-17-17-16--(16)b17r===|
|-----------------15-------------------------|
|-----------14-16----------------------------|
|-(14)--/16----------------------------------|
|--------------------------------------------|
|--------------------------------------------|
|--------------------------------------------|


              |------6-------|  |------6-------|  |------6-------|
   +E   S  S  S  S  S  S  S  S  S  S  S  S  S  S  S  S  S  S  S  S
|-(16)----14-17-17-17-17-16-14-19-19-19-19-17-16-21-21-21-21-19-17-|
|------17----------------------------------------------------------|
|------------------------------------------------------------------|
|------------------------------------------------------------------|
|------------------------------------------------------------------|
|------------------------------------------------------------------|
|------------------------------------------------------------------|


   |-----5-----|
   S  S  S  S  S  Q       +E   +E   S  S  S  S
|-22-22-22-21-19-22b24===(22)r(22)-19--------------|
|-------------------------------------19-22--------|
|-------------------------------------------21b22--|
|--------------------------------------------------|
|--------------------------------------------------|
|--------------------------------------------------|
|--------------------------------------------------|


   S  E     S  E     S  S      +S    S  E     S  E     S
|----------19-------19--------------19-------19-------19-|
|-19-22b24----22b24----22b24==(22)r----22b24----22b24----|
|--------------------------------------------------------|
|--------------------------------------------------------|
|--------------------------------------------------------|
|--------------------------------------------------------|
|--------------------------------------------------------|


   E     S  S      +S    S  E     S  E     S  E     S  S        +S    S  E     S  E     S  E     S  S      +S    S  E
|-------19--------------19-------19-------19-------19--------|-------19-------19-------19-------19--------------19----|
|-22b24----22b24==(22)r----22b24----22b24----22b24----22b24==|=(22)r----22b24----22b24----22b24----22b24==(22)r----22-|
|------------------------------------------------------------|--------------------------------------------------------|
|------------------------------------------------------------|--------------------------------------------------------|
|------------------------------------------------------------|--------------------------------------------------------|
|------------------------------------------------------------|--------------------------------------------------------|
|------------------------------------------------------------|--------------------------------------------------------|


                                                         |------5-------|
   W           S  S  S  T  T  S  S  S  S  S  T  T  S  S  S  S  S  T  T  S
|-21--------|-24p19-------------17-21p17-------------14-19p14--------------|
|-22--------|-------22-19s18-19----------19-17s15-17----------17p14s12-15--|
|-----------|--------------------------------------------------------------|
|-----------|--------------------------------------------------------------|
|-----------|--------------------------------------------------------------|
|-----------|--------------------------------------------------------------|
|-----------|--------------------------------------------------------------|


                                   |-----5------|            |-3-|
   S  T  T  T  T  S  S  S  T  T S  S S  a  S  S S  S     T T S S S
|-12-16p12-------10-14p10-------7-12-7-----------------------------|
|----------14s12----------12s10--------10h12-10-7------------------|
|-------------------------------------------------10b11-10p9p7-9p7-|
|------------------------------------------------------------------|
|------------------------------------------------------------------|
|------------------------------------------------------------------|
|------------------------------------------------------------------|


  |-3-|                     |-----3------|
  S S S +E      +E  +E     +E  a     +E  E E S +S
|------------------------------------------------------|
|------------------------------------------------------|
|-----9-(9)b11==(9)r(9)b11-(9)-9pb11r(9)-7-9-7-(7)b9r==|
|-9p7--------------------------------------------------|
|------------------------------------------------------|
|------------------------------------------------------|
|------------------------------------------------------|


                        ~~~~~~~~~~~~~
  E  E  a  S  S  S  S  +Q        +E.  +S
|-------------------------------------------|
|------18h19-18-21s22-(22)b23===(22)-(22)r\-|
|-7s18--------------------------------------|
|-------------------------------------------|
|-------------------------------------------|
|-------------------------------------------|
|-------------------------------------------|


 Section IV
  E. E. E E. S E E   E. E. E H      E. E. E E. E. E   W
|------------------|--------------|-----------------|------|
|------------------|--------------|-----------------|------|
|------------------|--------------|-----------------|------|
|------------------|--------------|-----------------|------|
|------------4s5-4-|-2-----2------|-----------------|------|
|-0--2--3-2--------|----5----2----|----2--3-2-------|------|
|------------------|--------------|-5----------3--2-|-0----|


  E. E. E E. S E E   E. E. E H      E. E. E E. E. E
|------------------|--------------|-----------------|
|------------------|--------------|-----------------|
|------------6s7-6-|-4-----4------|-----------------|
|------------------|----7----4----|-----------------|
|------------4s5-4-|-2-----2------|-----------------|
|-0--2--3-2--------|----5----2----|----2--3-------2-|
|------------------|--------------|-5-------2--3----|


 Keyboard solo
        PM|       PM|       PM        PM|       PM|       PM            PM      PM--|             PM----
  S S S E S S S S E S S S S S   S S S E S S S S E S S S S S   S S S E   S S S S E   S S   S   S   S
|-----------------------------|-----------------------------|------------------------------------------|
|-----------------------------|-----------------------------|------------------------------------------|
|-----------------------------|-----------------------------|------------------------------------------|
|-----------------------------|-----------------------------|------------------------------------------|
|-----------------------------|-----------------------------|------------------------------------------|
|-7p5-------7p5-------7p5-----|-7p5-------7p5-------7p5-----|-7p5---------7p5---------7p==5------------|
|-----7-0-0-----7-0-0-----7-0-|-----7-0-0-----7-0-0-----7-0-|-----7-0---0-----7-0---0---------7---0----|
|
| Gtr IV
|                                                                                     |--3--| |--3---|
| W                             W                             S S S S S S S S S S S S S S   S S S    S
|-----------------------------|-----------------------------|------------------------------------------|
|-----------------------------|-----------------------------|------------------------------------------|
|-----------------------------|-----------------------------|------------------------------------------|
|-----------------------------|-----------------------------|-----------------------7---7h==9-7h9h==11-|
|-----------------------------|-----------------------------|-2h4h5-4h5h7-5h7h9-7h9---9----------------|
|-----------------------------|-----------------------------|------------------------------------------|
|-----------------------------|-----------------------------|------------------------------------------|


 ----------------------------------------------|
   E     S  S  S  S  S S  S S  S  S  S    S     E
|-------------------------------------------------------------|
|-------------------------------------------------------------|
|-------------------------------------------------------------|
|-----------9--------7------5--------4------------------------|
|-10-----------9-------7-------5----------4-------------------|
|-------10-------10-------7-------5-------------5-------------|
|-------------------------------------------------------------|
|
|                                    |---3---|
|  S  S  S  S  S  S  S S  S S  S  S  S  S    S  T  T  T  T
|-------------------------------------------------------------|
|--------------------------------10----10h==12-10h12h14s15----|
|-----------------9----9h11-9h11----11------------------------|
|--9h11h12-11h12----12----------------------------------------|
|-------------------------------------------------------------|
|-------------------------------------------------------------|
|-------------------------------------------------------------|


         PM------|            PM--|      PM|              PM------|           PM--|      PM|
   S S   S     E   S      S S S E S S S  S   S       S S  S     E  S      S S S E S S S  S  S
|--------------------------------------------------|------------------------------------------|
|--------------------------------------------------|------------------------------------------|
|--------------------------------------------------|------------------------------------------|
|--------------------------------------------------|------------------------------------------|
|--------------------------------------------------|------------------------------------------|
|--7p5--------------------7p5-------7p5------------|-7p5------------------7p5-------7p5-------|
|--------0-----0---0----------0-0-0------0---0-----|------0-----0--0----------0-0-0------0--0-|
|
|  E    +E.       +S      H              S  +S       E   +E.      +S      H              S  S
|--------------------------------------------------|------------------------------------------|
|-14---(14)b15r==(14)b15-12-------------10-(10)b12-|------------------------------------------|
|--------------------------------------------------|-9---(9)b11r==(9)b11----------------------|
|--------------------------------------------------|---------------------12-------------14-12-|
|--------------------------------------------------|------------------------------------------|
|--------------------------------------------------|------------------------------------------|
|--------------------------------------------------|------------------------------------------|


       PM------|           PM--|      PM|            PM--|       PM---|     PM|
  S S  S     E  S      S S S E S S S  S  S    S    S S E S S S   S  E S S S S S
|------------------------------------------|---------------------------------------|
|------------------------------------------|---------------------------------------|
|------------------------------------------|---------------------------------------|
|------------------------------------------|---------------------------------------|
|------------------------------------------|---------------------------------------|
|-7p5------------------7p5-------7p5-------|--7p===5-------7p5----------7p5--------|
|------0-----0--0----------0-0-0------0--0-|---------0-0-0-------0--0-0-----0-0----|
|
| E   +E.      +S      H              S  S    H                 +H
|------------------------------------------|---------------------------------------|
|------------------------------------------|---------------------------------------|
|-9---(9)b11r==(9)b11----------------------|-14b16-------------(14)----------------|
|---------------------12-------------14-12-|---------------------------------------|
|------------------------------------------|---------------------------------------|
|------------------------------------------|---------------------------------------|
|------------------------------------------|---------------------------------------|


             PM|              PM|          PM                 PM|             PM|         PM
   S S  S    E   S      S S S E S S S  S   S       S S  S     E  S      S S S E S S S  S  S
|------------------------------------------------|------------------------------------------|
|------------------------------------------------|------------------------------------------|
|------------------------------------------------|------------------------------------------|
|------------------------------------------------|------------------------------------------|
|------------------------------------------------|------------------------------------------|
|------------------------------------------------|------------------------------------------|
|--5-3--2----0---0------5-3-2-0-0-5-3--2---0-----|-5-3--2-----0--0------5-3-2-0-0-5-3--2--0-|
|
|  E    E.      +S      H              S  +S       E   +E.      +S      H              S  S
|------------------------------------------------|------------------------------------------|
|-14---14b15r==(14)b15-12-------------10-(10)b12-|------------------------------------------|
|------------------------------------------------|-9---(9)b11r==(9)b11----------------------|
|------------------------------------------------|---------------------12-------------14-12-|
|------------------------------------------------|------------------------------------------|
|------------------------------------------------|------------------------------------------|
|------------------------------------------------|------------------------------------------|


             PM|             PM|         PM          PM|         PM|       PM
  S S  S     E  S      S S S E S S S  S  S   S   S S E S S S  S  E S S S S S
|------------------------------------------|------------------------------------|
|------------------------------------------|------------------------------------|
|------------------------------------------|------------------------------------|
|------------------------------------------|------------------------------------|
|------------------------------------------|------------------------------------|
|------------------------------------------|------------------------------------|
|-5-3--2-----0--0------5-3-2-0-0-5-3--2--0-|-5---3-2-0-0-5-3--2--0-0-5-3-2-0----|
|
|                                                             \1
| E   +E.      +S      H              S  S   H               +H
|------------------------------------------|------------------------------------|
|------------------------------------------|------------------------------------|
|-9---(9)b11r==(9)b11----------------------|------------------------------------|
|---------------------12-------------14-12-|-7b9-------------(7)----------------|
|------------------------------------------|------------------------------------|
|------------------------------------------|------------------------------------|
|------------------------------------------|------------------------------------|


          PM----|      PM---|     PM|
     S  S S E   S S S  S  E S S S S S
|-------------------------------------|
|-------------------------------------|
|-------------------------------------|
|-------------------------------------|
|-------------------------------------|
|----7p=5---------7p5---------7p5-----|
|---------0-0---0------0--0-0-----0-0-|
|
| /
|                      ~~~
| a +Q        E   E   +Q.         S S
|-------------------------------------|
|-------------------------------------|
|-------------------------------------|
|-------------------------------------|
|-------------5-----------------------|
|-7-(7)-----------7---(7)---------5h7-|
|-------------------------------------|


        PM-----|      PM-----|       PM|
   S  S S  E   S  S S S  E   S  S  S S  S
|-----------------------------------------|
|-----------------------------------------|
|-----------------------------------------|
|-----------------------------------------|
|-----------------------------------------|
|--7p=5-----------7p5-----------7p=5------|
|-------0--0---0------0--0---0-------0--0-|
|
|  T       T      T      T      T       T
|  S  S S  S S S  S S S  S S S  S  S S  S
|-----------------------------------------|
|-----------------------------------------|
|-----------------------------------------|
|-----------------------------------------|
|-----------------------------------------|
|-12p10p7-10p7p5-10p7p5-12p7p5-14p10p7-12-|
|-----------------------------------------|


        PM-----|        PM-------------|              PM---|
   S S  S  E    S  S S  S    E         S    S    S    S    S
|--------------------------------------------------------------|
|--------------------------------------------------------------|
|--------------------------------------------------------------|
|--------------------------------------------------------------|
|--------------------------------------------------------------|
|--7p5-------------7p5----------------------7p===5-------------|
|-------0--0----0-------0----0---------0--------------0----0---|
|
|       T       T       T         T         T         T
|                       |-------6--------|  |-------6--------|
|  S S  S  S S  S  S S  S  S   S  S  S   S  S  S   S  S  S   S
|--------------------------------------------------------------|
|--------------------------------------------------------------|
|--------------------------------------------------------------|
|--------------------------------------------------------------|
|--------------------------------------------------------------|
|-10p7-17p10p7-14p10p7-12p10p==7-17p10p==7-14p10p==7-12p10p==7-|
|--------------------------------------------------------------|


        PM------|       PM----------|       PM|
    S S S E     S   S S S   E       S   S S S S
|-------------------------------------------------|
|-------------------------------------------------|
|-------------------------------------------------|
|-------------------------------------------------|
|-------------------------------------------------|
|---7p5-------------7p5-----------------7p5-------|
|-------0-0-----0-------0---0-------0-------0-0---|
|
|           |--3--|     |------6------|
| a Q       S S   S S S S S   S S S   S E.    S
|-------------------------------------------------|
|-------------------------------------------------|
|-------------------------------------------------|
|-7-9-------7h9-----7-----------------------------|
|-----------------9---9s7p5h==9p5-----------------|
|---------------------------------7p==5-7-----5---|
|-------------------------------------------------|


         PM----|          PM--|         PM        PM--|         PM--|         PM
  S  S S E     S S S  S   E   S  S  S S S   S S S E   S S S  S  E   S  S S S  S
|-----------------------------------------|-------------------------------------|
|-----------------------------------------|-------------------------------------|
|-----------------------------------------|-------------------------------------|
|-----------------------------------------|-------------------------------------|
|-----------------------------------------|-------------------------------------|
|-----------------------------------------|-------------------------------------|
|-5--3-2-0-----0-5-3--2---0---0--5--3-2-0-|-5-3-2-0---0-5-3--2--0---0--5-3-2--0-|
|
|                         \1/
|                                           ~
| E.     S +E    E   +S  +E   S +E    E     Q       E   E   +E    S S  S S S  S
|-----------------------------------------|-------------------------------------|
|-----------------------------------------|------------------------------0h5h10-|
|-----------------------------------------|-------------------------------------|
|----------------7---(7)-(7)--------------|-6-----------------------------------|
|--------5-(5)------------------------5---|-------------9---(9)-----7h12--------|
|-7---------------------------7-(7)-------|---------7-------------7-------------|
|-----------------------------------------|-------------------------------------|


               PM----|              PM------|                     PM                       PM--------------|          PM|            PM
   S    S   S  E     S   S    S S   E       S     S    S     S    S            S  S   S    E               S S S   S  E S S S   S    S
|--------------------------------------------------------------------------|--------------------------------------------------------------|
|--------------------------------------------------------------------------|--------------------------------------------------------------|
|--------------------------------------------------------------------------|--------------------------------------------------------------|
|--------------------------------------------------------------------------|--------------------------------------------------------------|
|--------------------------------------------------------------------------|--------------------------------------------------------------|
|--------------------------------------------------------------------------|--------------------------------------------------------------|
|--5----3---2--0-----0---5----3-2---0-------0-----5----3-----2----0--------|---5--3---2----0---------------0-5-3---2--0-0-5-3---2----0----|
|
|              \1/
|  T                          T                                 T
|  |--3---|                             |--3---|  |--------6---------|
|  S  S   S S +S   S T T T T  S T T T T S S    S  S  S    S  S  S    S        +E     +S   +S       +Q             +Q.          +S   +S
|------------------------5h9-12p5p0----------------------12h17-19p==17b19==|=(17)---(17)r(17)b18==(17)b19========(17)---------(17)r(17)\--|
|-12p10p==5p0-(0)------5------------3h5p2p0---------12---------------------|--------------------------------------------------------------|
|--------------------6---------------------------14------------------------|--------------------------------------------------------------|
|------------------7--------------------------14---------------------------|--------------------------------------------------------------|
|--------------------------------------------------------------------------|--------------------------------------------------------------|
|--------------------------------------------------------------------------|--------------------------------------------------------------|
|--------------------------------------------------------------------------|--------------------------------------------------------------|


      PM------|     PM---|     PM|       PM----|       PM--|        PM---|
  S S S E     S S S S  E S S S S S   S S S   E S   S S S E S  S  S  S    S
|----------------------------------|------------------------------------------|
|----------------------------------|------------------------------------------|
|----------------------------------|------------------------------------------|
|----------------------------------|------------------------------------------|
|----------------------------------|------------------------------------------|
|-7p5-----------7p5--------7p5-----|-7p5-----------7p5--------7p=5------------|
|-----0-0-----0-----0--0-0-----0-0-|-----0---0-0-------0-0-0--------0----0----|
|
|                   ~~                                 ~~~~~~~~~~
|                                    |-----3-----|                  |---3---|
| E.    S +E    E   Q.         S S   Q     Q     Q     Q     +E    +S  S    S
|----------------------------------|------------------------------------------|
|----------------------------------|-------------7---------------------7h==10-|
|-------6-(6)---7---6----------7h9-|-7-----9-----------9-----(9)---(9)--------|
|-9--------------------------------|------------------------------------------|
|----------------------------------|------------------------------------------|
|----------------------------------|------------------------------------------|
|----------------------------------|------------------------------------------|


      PM--------|     PM----------|                PM---|
  S S S  E      S S S S   E       S    S     S     S     S
|-------------------------------------------------------------|
|-------------------------------------------------------------|
|-------------------------------------------------------------|
|-------------------------------------------------------------|
|-------------------------------------------------------------|
|-7p5-------------7p5------------------7p====5----------------|
|-----0--0------0-----0---0-------0----------------0-----0----|
|
|                     |------6-------|
| E.     S  +E    E   S S   S S S    S T  T  T  T  T  T  T  T
|-----------------7---5h7h==9-7h9h==10-9h10h12-10h12h14-10h12h|
|-7-----10-(10)-----------------------------------------------|
|-------------------------------------------------------------|
|-------------------------------------------------------------|
|-------------------------------------------------------------|
|-------------------------------------------------------------|
|-------------------------------------------------------------|


               PM---------------|                  PM--------------|                PM---|
   S     S     S     E           S     S     S     S    E          S     S    S     S    S
|----------------------------------------------------------------------------------------------|
|----------------------------------------------------------------------------------------------|
|----------------------------------------------------------------------------------------------|
|----------------------------------------------------------------------------------------------|
|----------------------------------------------------------------------------------------------|
|--7p====5-----------------------------7p====5---------------------------7p===5----------------|
|--------------0-----0-----------0-----------------0----0----------0----------------0----0-----|
|
|                                                  |--------6---------|  |--------6---------|
|  T  T  T  T  T  T  T  T  T  T  T  T  T  T  T  T  S  S    S  S  S    S  S  S    S  S  S    S
|-14-10h12h15-12h14h16-13h15h18-14h16h19-16h18h21-17h19h==22-19h21h==24-22h24h==26-22h24p==21--|
|----------------------------------------------------------------------------------------------|
|----------------------------------------------------------------------------------------------|
|----------------------------------------------------------------------------------------------|
|----------------------------------------------------------------------------------------------|
|----------------------------------------------------------------------------------------------|
|----------------------------------------------------------------------------------------------|


         PM------|         PM|             PM              PM---------|                       PM------|          PM
   S S S E       S S S  S  E  S   S   S  S S     S  S S    E           S     S    S     S     E       S   S  S S S
|--------------------------------------------|---------------------------------------------------------------------|
|--------------------------------------------|---------------------------------------------------------------------|
|--------------------------------------------|---------------------------------------------------------------------|
|--------------------------------------------|---------------------------------------------------------------------|
|--------------------------------------------|---------------------------------------------------------------------|
|--------------------------------------------|---------------------------------------------------------------------|
|--5-3-2-0-------0-5-3--2--0--0---5---3--2-0-|---5--3-2----0-----------0-----5----3-----2-----0-------0---5--3-2-0-|
|
|                                                                      T                                  ~~~~
|                                                     |---3---|              |---3---|
|  Q        +Q          E.    S  +S   S  E      +E    S  S    S  T  T  T  T  S  S    S  T  T  T  T  E    +Q
|-22-------(22)\-------------10-(10)---------|---------------10h12h17-22p17p12p10h==12----14p12p10-17---(17)-------|
|----------------------12------------10-12---|-(12)------------------------------------12--------------------------|
|--------------------------------------------|--------9h14---------------------------------------------------------|
|--------------------------------------------|---------------------------------------------------------------------|
|--------------------------------------------|---------------------------------------------------------------------|
|--------------------------------------------|---------------------------------------------------------------------|
|--------------------------------------------|---------------------------------------------------------------------|


              PM------|        PM|           PM         PM---|           PM--|         PM
   S  S  S    E       S S S  S E S   S  S  S S    S S S E    S   S  S  S E   S S S  S  S
|----------------------------------------------|--------------------------------------------|
|----------------------------------------------|--------------------------------------------|
|----------------------------------------------|--------------------------------------------|
|----------------------------------------------|--------------------------------------------|
|----------------------------------------------|--------------------------------------------|
|----------------------------------------------|--------------------------------------------|
|--5--3--2----0-------0-5-3--2-0-0---5--3--2-0-|--5-3-2-0----0---5--3--2-0---0-5-3--2--0----|
|
|                                                 T                        T
|        |---3---|
|  E     S  S    S  Q        Q      +E     E      Q        E    +E     S S Q        S  S
|-17\---12p10h==12-----------------------------|-10s======22---(22)s==12p5-7s======24p12----|
|------------------12s======24-----(24)s==10---|--------------------------------------------|
|----------------------------------------------|--------------------------------------------|
|----------------------------------------------|--------------------------------------------|
|----------------------------------------------|--------------------------------------------|
|----------------------------------------------|--------------------------------------------|
|----------------------------------------------|--------------------------------------------|


        PM----------|       PM---|      PM|          PM----|        PM-------|      PM----|
  S  S  S    E      S S S   S  E S  S S S S     S  S S E   S  S  S  S  E     S S S  S      S
|-------------------------------------------|------------------------------------------------|
|-------------------------------------------|------------------------------------------------|
|-------------------------------------------|------------------------------------------------|
|-------------------------------------------|------------------------------------------------|
|-------------------------------------------|------------------------------------------------|
|-7p=5----------------7p5-----------7p5-----|---7p=5----------7p=5-------------7p5-----------|
|-------0----0------0-------0--0-0------0-0-|--------0-0---0--------0--0-----0------0------0-|
|
|                                               \6_______/          /               \1.5/
|    T            T         ~~~~
|       |--3---|
| S  S  S  S   S  Q        +Q       Q          +Q        E   +E    +E    +E    E   +S      S
|-7-14p12p10p==7-17-------(17)--------------|------------------------------------------------|
|----------------------------------10-------|-(10)-------------------------------------------|
|-------------------------------------------|------------7---(7)---(7)---(7)-----------------|
|-------------------------------------------|----------------------------------0---(0)h===11p|
|-------------------------------------------|------------------------------------------------|
|-------------------------------------------|------------------------------------------------|
|-------------------------------------------|------------------------------------------------|


      PM---------|      PM--------|     PM|       PM--|      PM-----|       PM|
  S S S E        S S S  S  E      S S S S S   S S S E S S S  S  E   S  S  S S S
|-------------------------------------------|--------------------------------------|
|-------------------------------------------|--------------------------------------|
|-------------------------------------------|--------------------------------------|
|-------------------------------------------|--------------------------------------|
|-------------------------------------------|--------------------------------------|
|-7p5--------------7p5--------------7p5-----|-7p5-------7p5------------7p=5--------|
|-----0-0--------0------0--0------0-----0-0-|-----0-0-0------0--0---0-------0-0----|
|
|          \1.5_______________\6______________/
| Q       +Q           +E    +Q.              H             +E    S S +Q
|-------------------------------------------|--------------------------------------|
|-------------------------------------------|--------------------------------------|
|-------------------------------------------|--------------------------------------|
|-0-------(0)----------(0)---(0)------------|--------------------------------------|
|-------------------------------------------|-2-------------(2)h==5p2-(2)----------|
|-------------------------------------------|--------------------------------------|
|-------------------------------------------|--------------------------------------|


               PM|              PM|          PM                 PM|             PM|         PM
   S S   S     E   S      S S S E S S S  S   S       S S  S     E  S      S S S E S S S  S  S
|--------------------------------------------------|------------------------------------------|
|--------------------------------------------------|------------------------------------------|
|--------------------------------------------------|------------------------------------------|
|--------------------------------------------------|------------------------------------------|
|--------------------------------------------------|------------------------------------------|
|--------------------------------------------------|------------------------------------------|
|--5-3---2-----0---0------5-3-2-0-0-5-3--2---0-----|-5-3--2-----0--0------5-3-2-0-0-5-3--2--0-|
|
|  E    +E.       +S      H              S  +S       E   +E.      +S      H              S  S
|--------------------------------------------------|------------------------------------------|
|-14---(14)b15r==(14)b15-12-------------10-(10)b12-|------------------------------------------|
|--------------------------------------------------|-9---(9)b11r==(9)b11----------------------|
|--------------------------------------------------|---------------------12-------------14-12-|
|--------------------------------------------------|------------------------------------------|
|--------------------------------------------------|------------------------------------------|
|--------------------------------------------------|------------------------------------------|


             PM|             PM|         PM             PM-----|                   PM|       PM
  S S  S     E  S      S S S E S S S  S  S    S     S S E      S    S    S  S      E S S S S S
|------------------------------------------|-----------------------------------------------------|
|------------------------------------------|-----------------------------------------------------|
|------------------------------------------|-----------------------------------------------------|
|------------------------------------------|-----------------------------------------------------|
|------------------------------------------|-----------------------------------------------------|
|------------------------------------------|-----------------------------------------------------|
|-5-3--2-----0--0------5-3-2-0-0-5-3--2--0-|--5-----3-2-0------0----5----3--2------0-0-5-3-2-0---|
|
|                                                                 T         T
|                                                           |----3-----|
| E   +E.      +S      H              S  S    Q            +E     E    E    H
|------------------------------------------|-----------------------------------------------------|
|------------------------------------------|-10b12========(10)---13p==10---13tr10r---------------|
|-9---(9)b11r==(9)b11----------------------|-----------------------------------------------------|
|---------------------12-------------14-12-|-----------------------------------------------------|
|------------------------------------------|-----------------------------------------------------|
|------------------------------------------|-----------------------------------------------------|
|------------------------------------------|-----------------------------------------------------|


           PM-------|             PM---|      PM|                                              PM--------|      PM|
   S     S S E        S    S  S   S  E S S S  S  S    S    S S E                 S       S S   S  E      S S S  S  S
|--------------------------------------------------|-----------------------------------------------------------------|
|--------------------------------------------------|-----------------------------------------------------------------|
|--------------------------------------------------|-----------------------------------------------------------------|
|--------------------------------------------------|-----------------------------------------------------------------|
|--------------------------------------------------|-----------------------------------------------------------------|
|--7p====5-----------------7p=5----------7p5-------|--7p===5-----------------------------7p5---------------7p5-------|
|----------0-0--------0-----------0--0-0------0--0-|---------0-0-----------------0-------------0--0------0------0--0-|
|
|                                                                                                     \6
|                                 ~~~~
|                                                                  |--------3--------|
|  Q            +S   +S   +E     +Q.          S  S    Q           +S      +S        +S   E    +E     +Q         S  S
|-17b19========(17)-(17)r(17)---(17)---------19p17-|-----------------------------------------------------------------|
|--------------------------------------------------|-18b19-------(18)b19r(18)b19r==(18)-17---(17)---(17)----------17-|
|--------------------------------------------------|-----------------------------------------------------------------|
|--------------------------------------------------|-----------------------------------------------------------12----|
|--------------------------------------------------|-----------------------------------------------------------------|
|--------------------------------------------------|-----------------------------------------------------------------|
|--------------------------------------------------|-----------------------------------------------------------------|


            PM---------|           PM---|         PM|                   PM--|     PM--|     PM|
   S    S   S  E         S   S S   S  E S   S  S  S  S            S   S S E S S S S E S S S S S
|------------------------------------------------------|-------------------------------------------|
|------------------------------------------------------|-------------------------------------------|
|------------------------------------------------------|-------------------------------------------|
|------------------------------------------------------|-------------------------------------------|
|------------------------------------------------------|-------------------------------------------|
|--7p===5--------------------7p5------------7p=5-------|----------7p==5-------7p5-------7p5--------|
|-----------0--0---------0---------0--0-0---------0--0-|----------------0-0-0-----0-0-0-----0-0----|
|
|                                           \1/            \5_____/
|  E       +E     S     +S   E    +Q       +E     S  S     a     +W
|------------------------------------------------------|-------------------------------------------|
|-17b19---(17)---17b18r(17)-15---(15)-----(15)---17p15-|-------------------------------------------|
|------------------------------------------------------|-------------------------------------------|
|------------------------------------------------------|-------------------------------------------|
|------------------------------------------------------|-<12>--(<12>)------------------------------|
|------------------------------------------------------|-------------------------------------------|
|------------------------------------------------------|-------------------------------------------|


        PM|       PM|       PM          PM|       PM|       PM
  S S S E S S S S E S S S S S    S  S S E S S S S E S S S S S
|-----------------------------|-------------------------------|
|-----------------------------|-------------------------------|
|-----------------------------|-------------------------------|
|-----------------------------|-------------------------------|
|-----------------------------|-------------------------------|
|-----------------------------|-------------------------------|
|-5-3-2-0-0-5-3-2-0-0-5-3-2-0-|--5--3-2-0-0-5-3-2-0-0-5-3-2-0-|
|
| ~~~~~~~~~~~~~~~~~~~~~~~~~~~~~~~~~~~~~~~~~~~~~~~~~~~~~~~~~~~~~
| W                             +H              H
|-----------------------------|-------------------------------|
|-----------------------------|-------------------------------|
|-4---------------------------|-(4)s============9s============|
|-----------------------------|-------------------------------|
|-----------------------------|-------------------------------|
|-----------------------------|-------------------------------|
|-----------------------------|-------------------------------|


         PM|        PM|       PM         PM|        PM|              PM
   S S S E S S S  S E S S S S S    S S S E S S S  S E S  S   S   S   S
|-------------------------------|------------------------------------------|
|-------------------------------|------------------------------------------|
|-------------------------------|------------------------------------------|
|-------------------------------|------------------------------------------|
|-------------------------------|------------------------------------------|
|-------------------------------|------------------------------------------|
|--5-3-2-0-0-5-3--2-0-0-5-3-2-0-|--5-3-2-0-0-5-3--2-0-0--5---3---2---0-----|
|
|~~~~~~~~~~~~~~~~~~~~~~~~~~~~~~~~~~~~~~~~~~~~~~~~~~~
|  H              H                H              Q      S   S   S   S
|-------------------------------|-----------------------/x\-/x\-/x\-/x\----|
|-------------------------------|------------------------x---x---x---x-----|
|-14s============16s============|=19s============23------------------------|
|-------------------------------|------------------------------------------|
|-------------------------------|------------------------------------------|
|-------------------------------|------------------------------------------|
|-------------------------------|------------------------------------------|


 Section V
                             ~~                                                                ~~
   E.        E.        E     H                               S  E.           E     E           H
|---------------------------------------------------------|---------------------------------------------------------|
|---------------------------------------------------------|---------------------------------------------------------|
|---------------------------------------------------------|---------------------------------------------------------|
|---------------------------------------------------------|---------------------------------------------------------|
|---------------------------------------------------------|--0h=2------------0-----2--------------------------------|
|--0---------2---------3-----2----------------------------|------------------------------------2--------------------|
|---------------------------------------------------------|---------------------------------------------------------|
|
| Gtr II
|                                                                                                                ~~
|  S   S  S  S   S  S  S  S  S  S  S  S  T  T  T  T  S  S    S  S   S  T  T  S  S  S     S     S  T  T  T  T  S  Q
|---------------------------------14-17-15h17p15-14-------|-14------------------------------------------------------|
|-15--14----14--------------14-15-------------------17----|----17--15-17h19-15----15----14--------------------------|
|--------16-----16-14----16----------------------------16-|--------------------16-------------16-14-14h16-14--------|
|---------------------17----------------------------------|--------------------------------------------------16-12--|
|---------------------------------------------------------|---------------------------------------------------------|
|---------------------------------------------------------|---------------------------------------------------------|
|---------------------------------------------------------|---------------------------------------------------------|
|
| Gtr IV
|                                                                                  |---3----|
|  S   S  S  S   S  S  S  S  S  S  S  S  S     S     S  S    S  S   S  S     S  S  S  S     S  S  S     S     S  Q
|---------------------------------10-14-12----10----------|-10--9------9--------------------------------------------|
|-12--10----10--------------10-12-------------------14-12-|--------12-------12-10-12-10-----------------------------|
|--------12-----12-11----12-------------------------------|--------------------------------12-11-12-----------------|
|---------------------12----------------------------------|--------------------------------------------12p===11--9--|
|---------------------------------------------------------|---------------------------------------------------------|
|---------------------------------------------------------|---------------------------------------------------------|
|---------------------------------------------------------|---------------------------------------------------------|


   E.        E.        E     H                               W
|---------------------------------------------------------|------------------------------------------------|
|---------------------------------------------------------|------------------------------------------------|
|---------------------------------------------------------|------------------------------------------------|
|---------------------------------------------------------|------------------------------------------------|
|---------------------------------------------------------|------------------------------------------------|
|--0---------2---------3-----2----------------------------|------------------------------------------------|
|---------------------------------------------------------|--0---------------------------------------------|
|
|  S   S  S  S   S  S  S  S  S  S  S  S  T  T  T  T  S  S    S  S  S  S  S  S  S  S  S  S  E    S  S  E
|---------------------------------14-17-15h17p15-14-------|-19-------17-------14---------------------------|
|-15--14----14--------------14-15-------------------17----|----------------------------17------19-17-15----|
|--------16-----16-14----16----------------------------16-|----19-18----18-16----16-14----14---------------|
|---------------------17----------------------------------|------------------------------------------------|
|---------------------------------------------------------|------------------------------------------------|
|---------------------------------------------------------|------------------------------------------------|
|---------------------------------------------------------|------------------------------------------------|
|
|                                                            T        T        T        T       T
|  S   S  S  S   S  S  S  S  S  S  S  S  S     S     S  S    S  S  S  S  S  S  S  S  S  S  S S  S  S  E
|---------------------------------10-14-12----10----------|------------------------------------------------|
|-12--10----10--------------10-12-------------------14-12-|------------------------------------------------|
|--------12-----12-11----12-------------------------------|-19p16p11-18p14p=9-16p11p=7-14p=9p6-11p=9p=7----|
|---------------------12----------------------------------|------------------------------------------------|
|---------------------------------------------------------|------------------------------------------------|
|---------------------------------------------------------|------------------------------------------------|
|---------------------------------------------------------|------------------------------------------------|


                             ~~
   E.        E.        E     H
|---------------------------------------------------------|
|---------------------------------------------------------|
|---------------------------------------------------------|
|---------------------------------------------------------|
|---------------------------------------------------------|
|--0---------2---------3-----2----------------------------|
|---------------------------------------------------------|
|
|  S   S  S  S   S  S  S  S  S  S  S  S  T  T  T  T  S  S
|---------------------------------14-17-15h17p15-14-------|
|-15--14----14--------------14-15-------------------17----|
|--------16-----16-14----16----------------------------16-|
|---------------------17----------------------------------|
|---------------------------------------------------------|
|---------------------------------------------------------|
|---------------------------------------------------------|
|
|  S   S  S  S   S  S  S  S  S  S  S  S  S     S     S  S
|------------------------------10-14-12-10-------------10-|
|-10-----10--------------10-12----------------14----12----|
|-----12----12--11----12----------------------------------|
|------------------12-------------------------------------|
|---------------------------------------------------------|
|---------------------------------------------------------|
|---------------------------------------------------------|


                                     ~~
   E.        E.          E           H
|---------------------------------------------------------|
|---------------------------------------------------------|
|---------------------------------------------------------|
|---------------------------------------------------------|
|--5---------4-----------2--------------------------------|
|------------------------------------2--------------------|
|---------------------------------------------------------|
|
|                                                      ~~
|  S   S  S  T  T  S  S  S     S     S  T  T  T  T  S  Q
|-14------------------------------------------------------|
|-----17-15-17h19-15----15----14--------------------------|
|--------------------16-------------16-14-14h16-14--------|
|--------------------------------------------------16-12--|
|---------------------------------------------------------|
|---------------------------------------------------------|
|---------------------------------------------------------|
|
|                        |---3----|
|  S   S  S  S     S  S  S  S     S  S  S     S     S  Q
|-10---9-----9--------------------------------------------|
|--------12-------12-10-12-10-----------------------------|
|--------------------------------12-11-12-----------------|
|--------------------------------------------12p===11--9--|
|---------------------------------------------------------|
|---------------------------------------------------------|
|---------------------------------------------------------|


   E.        E.        E     E.        E.              E
|-----------------------------------------------------------|
|-----------------------------------------------------------|
|-----------------------------------------------------------|
|-----------------------------------------------------------|
|-----------------------------------------------------------|
|--0---------2---------3-------------------------------3----|
|----------------------------2---------3--------------------|
|
|  S   S  S  S   S  S  S  S  S   S  S  S   T  T  T  T  S  S
|----------------------------------14-17--15h17p15-14-------|
|-15--14----14--------------14--15--------------------17----|
|--------16-----16-14----16------------------------------16-|
|---------------------17------------------------------------|
|-----------------------------------------------------------|
|-----------------------------------------------------------|
|-----------------------------------------------------------|
|
|  S   S  S  S   S  S  S  S  S   S  S  S   T  T  T  T  S  S
|----------------------------------10-14--12h14p12p10-------|
|-12--10----10--------------10--12--------------------14-12-|
|--------12-----12-11----12---------------------------------|
|---------------------12------------------------------------|
|-----------------------------------------------------------|
|-----------------------------------------------------------|
|-----------------------------------------------------------|


  B5
                                                                           ~~~~
   H                                                                       Q.                                      +E
|------------------------------------------------------------------------------------------------------------------------|
|------------------------------------------------------------------------------------------------------------------------|
|------------------------------------------------------------------------------------------------------------------------|
|------------------------------------------------------------------------------------------------------------------------|
|------------------------------------------------------------------------------------------------------------------------|
|--2---------------------------------------------------------------------/14--------------------------------------(14)\--|
|--0---------------------------------------------------------------------------------------------------------------------|
|
|                                                                                                               ~~
|  T  T    T     T  T  T     T     T  T  T     T     T  T  T     T     T   T   T     T     T  T  T     T     T  Q
|---------------------------------------------------------12----14----15--14--12----------------15----17----21-19--------|
|---------------------12----14----15-14-12----14----15-15---------------------------15----17-19--------------------------|
|-12-11---12----14-14----------------------------------------------------------------------------------------------------|
|------------------------------------------------------------------------------------------------------------------------|
|------------------------------------------------------------------------------------------------------------------------|
|------------------------------------------------------------------------------------------------------------------------|
|------------------------------------------------------------------------------------------------------------------------|
|
|  |-------------6--------------|     |--------------6--------------|      |--------------6---------------|
|  S    S     S     S     S     S     S     S     S     S     S     S      S      S     S     S     S     S     Q
|--------------------------------------------------------------------------------------------------------------19--------|
|------------------10----12----14----12----14----15----14----15----17-----15-----17----19----17----19----22--------------|
|--7----9----11----------------------------------------------------------------------------------------------------------|
|------------------------------------------------------------------------------------------------------------------------|
|------------------------------------------------------------------------------------------------------------------------|
|------------------------------------------------------------------------------------------------------------------------|
|------------------------------------------------------------------------------------------------------------------------|


                                                                              ~~~~~
  E.   E.    E E.       E S         E        E.       E.          E           H
|------------------------------------------|-----------------------------------------------|
|------------------------------------------|-----------------------------------------------|
|------------------------------------------|-----------------------------------------------|
|------------------------------------------|-----------------------------------------------|
|-----------------------4s5---------4------|-2--------------------2------------------------|
|-0----2-----3-2---------------------------|----------5-----------------------2------------|
|------------------------------------------|-----------------------------------------------|
|
| Gtr IV
| |---3----|   |-----------3------------|                         |----3----|
| Q  Q     Q   Q   Q         +E        +E    E  E        +S  +S  +S     +S  S Q.      +E
|------------------------------------------|-----------------------------------------------|
|------------------------------------------|-----------------------------------------------|
|------------------------------------------|----9b11=====(9)r(9)-(9)b11r(9)p7-9b11====(9)r-|
|-----------------11b12r====(11)b12r==(11)-|-9---------------------------------------------|
|-7--9----10---9---------------------------|-----------------------------------------------|
|------------------------------------------|-----------------------------------------------|
|------------------------------------------|-----------------------------------------------|


  E.    E.    E  E.       E.    E   W
|---------------------------------|---------------------------------------------|
|---------------------------------|---------------------------------------------|
|---------------------------------|---------------------------------------------|
|---------------------------------|---------------------------------------------|
|---------------------------------|---------------------------------------------|
|-0-----2-----3--2----------------|---------------------------------------------|
|-------------------------3-----2-|-0-------------------------------------------|
|
| |----3----|    |-----3------|         |-----6------| |---5---| |----6-----|
| Q   Q     Q    Q   Q        Q     Q   S  S  S S  S S S S S S S S S S S  S S
|---------------------------------|---------------------------------------------|
|---------------------------------|----12-10------------------------------------|
|-9--11----12---11----------------|----------11-9------9-7----------------------|
|-------------------11b12----11---|-9-------------12-9-----9-7---9-7------------|
|---------------------------------|----------------------------9-----9-7--------|
|---------------------------------|--------------------------------------10-7---|
|---------------------------------|---------------------------------------------|


   E.  E.  E  E.  S    E         E
|---------------------------------------|
|---------------------------------------|
|-----------------6s===7---------6------|
|---------------------------------------|
|-----------------4s===5---------4------|
|--0---2---3--2-------------------------|
|---------------------------------------|
|
|  E.  E.  E  E.  E       +E        +S
|-12--14--15-14--21b22r==(21)b22r==(21)-|
|---------------------------------------|
|---------------------------------------|
|---------------------------------------|
|---------------------------------------|
|---------------------------------------|
|---------------------------------------|


   E.  E.  E  H                E.  E.  E  E.  E.  E
|---------------------------|---------------------------------|
|---------------------------|---------------------------------|
|--4-------4----------------|---------------------------------|
|------7------4-------------|---------------------------------|
|--2-------2----------------|---------------------------------|
|------5------2-------------|------2---3----------2-----------|
|---------------------------|--5----------2---3---------------|
|
|  E.  E.  E  Q       +Q       E.  E.  E  E.  E.  S      +S
|-19--17--19----------------|-----14--15----------------------|
|------------17b19===(17)r--|-17---------14--15--17b19==(17)r-|
|---------------------------|---------------------------------|
|---------------------------|---------------------------------|
|---------------------------|---------------------------------|
|---------------------------|---------------------------------|
|---------------------------|---------------------------------|


 Outro
   PM----------------------------------------------------|
   S  S S S S S S S S S S S   S    S S S   S S S S S S S S S S S S S S S S
|----------------------------------------|---------------------------------|
|----------------------------------------|---------------------------------|
|----------------------------------------|---------------------------------|
|----------------------------------------|---------------------------------|
|----------------------------------------|-----------------5p0---7---------|
|--7--0-------------7-0------------------|-7-0-----------------7---5h7-----|
|-------7-0-5-3-0-0-----7-0---5----3-0-0-|-----7-0-5-3-0-0-------------0-0-|
|
|                             \2.5
|  H.                        +Q            W
|----------------------------------------|---------------------------------|
|-12------------------------(12)---------|---------------------------------|
|----------------------------------------|---------------------------------|
|----------------------------------------|---------------------------------|
|----------------------------------------|---------------------------------|
|----------------------------------------|---------------------------------|
|----------------------------------------|---------------------------------|


                                                        D.S. al Coda &
  PM----------------------------|
  S S S S S S S S S S S S S S S S   S S S S S S S S S S S S S S S S
|---------------------------------|------------------------------------|
|---------------------------------|------------------------------------|
|---------------------------------|-------7-----9p7---7----------------|
|---------------------------------|-9-7-9---7h9-----9---9-7-9-7--------|
|---------------------------------|-----------------------------9-7----|
|-7-0-------------7-0-------------|------------------------------------|
|-----7-0-5-3-0-0-----7-0-5-3-0-0-|------------------------------------|
|
| Gtr II
| W                                 S S S S S S S S S S S S S S S S
|---------------------------------|------------------------------------|
|---------------------------------|------------------------------------|
|---------------------------------|------------------------------------|
|---------------------------------|------------------------------------|
|---------------------------------|-------5-----7p5---5----------------|
|---------------------------------|-7-5-7---5h7-----7---7-5-7-5--------|
|---------------------------------|-----------------------------7-5----|


   |--3--|       |--3--|              |-3-|
   S  S  S  S  S S  S  S S S  S S S S S S S S  S
|-12p10------------------------------------------|
|-------12-12----0-12p10p8-7-10p8p7---8p7--------|
|-------------12--------------------7-----9-7----|
|---------------------------------------------11-|
|------------------------------------------------|
|------------------------------------------------|
|------------------------------------------------|
|
| Gtr IV
|  |--3--|       |--3--|              |-3-|
|  S  S  S  S  S S  S  S S S  S S S S S S S S  S
|------------------------------------------------|
|--5p=3p=0-------0-------------------------------|
|-----------4p=0----4p=2p0----2p0-----0----------|
|--------------------------4------4p0---4p2p0----|
|----------------------------------------------4-|
|------------------------------------------------|
|------------------------------------------------|


                                                 C
            |--3--|                |--3--|
   S S  S S S  S  S S  S  S S  S S S  S  S S S   E. H.      S
|----------------------------------------------|-----------------*|
|----------------------------------------------|-----------------*|
|----------------------------------------------|-----------------*|
|-14p0------0----------------------------------|-----------------*|
|------16p0---16p14p0----14p0------0---------0-|-----------------*|
|---------------------15------15p0---15p14p0---|-2---------------*|
|----------------------------------------------|-0---------------*|
|
|           |--3--|                |--3--|
|  S S  S S S  S  S S  S  S S  S S S  S  S S S   E. H.      S
|----------------------------------------------|-----------------*|
|----------------------------------------------|-----------------*|
|----------------------------------------------|-----------------*|
|--2p0------0----------------------------------|-----------------*|
|-------4p0----4p=2p0-----2p0------0-----------|-----------------*|
|----------------------3-------3p0----3p=2p0---|-----------------*|
|--------------------------------------------3-|-0---------------*|




--------------------------------------------------------------------------------


Duration Legend
---------------
W - whole; H - half; Q - quarter; E - 8th; S - 16th; T - 32nd; X - 64th; a - acciaccatura
+ - note tied to previous; . - note dotted; .. - note double dotted
Uncapitalized letters represent notes that are staccato (1/2 duration)
Irregular groupings are notated above the duration line
Duration letters will always appear directly above the note/fret number it represents the
duration for.  Duration letters with no fret number below them represent rests.  Multi-
bar rests are notated in the form Wxn, where n is the number of bars to rest for.  Low
melody durations appear below the staff

Tablature Legend
----------------
 h   - hammer-on
 p   - pull-off
 b   - bend
 pb  - pre-bend
 r   - bend release (if no number after the r, then release immediately)
 /\  - slide into or out of (from/to "nowhere")
 s   - legato slide
 S   - shift slide
 - natural harmonic
[n]  - artificial harmonic
n(n) - tapped harmonic
 ~   - vibrato
 tr  - trill
 T   - tap
 TP  - trem. picking
 PM  - palm muting
\n/  - tremolo bar dip; n = amount to dip
 \n  - tremolo bar down
 n/  - tremolo bar up
/n\  - tremolo bar inverted dip
 =   - hold bend; also acts as connecting device for hammers/pulls
 <> - volume swell (louder/softer)
 x   - on rhythm slash represents muted slash
 o   - on rhythm slash represents single note slash

Misc Legend
-----------
 |  - bar
||  - double bar
||o - repeat start
o|| - repeat end
*|  - double bar (ending)
 :  - bar (freetime)
 $  - Segno
 &  - Coda
Tempo markers -  = BPM(8/16=s8/s16), where s8 = swing 8ths, s16 = swing 16ths

comments
print report bad tab
6 comments total. Showing first comments.
0 reply
supea wrote on August 3 2007, 05:56 am

Why is this guy banned?

0 reply
Nightfyre wrote on September 6 2007, 08:19 am

Excellent tab!

0 reply
CrudeSapphire wrote on September 12 2007, 04:50 pm

What the ****?!

I want to post or [tab]
guest
You may want to rate the tab now too:
select rating
Please do not post tabs as comments. Select "correction" instead!