Oops, an error
Loading. Please wait.

Acid Rain Tab

ver3
ver3

Whole song

More versions @911Tabs.com
3,021 views 3 this week
no commentswrite comment
1 2 3 4 5
please rate
add to favorites launch autoscroll
font size
0
reset
Autoscroll
+/-
esc
set tempo
stop
Contributor
Difficulty
advanced
WARNING: You are trying to view
                                    content from Ultimate-Guitar.com
                                    in an unauthorized application,
                                    which is prohibited.

                                    Please use an official Ultimate
                                    Guitar Tabs application for iPhone,
                                    iPad or Android to access legitimate
                                    chords, guitar, bass, and drum tabs
                                    from Ultimate-Guitar.com database.

                                    Type "ultimate guitar tabs" in Apple
                                    App Store's or Android Market's
                                    search to find the application.
Liquid Tension Experiment: Acid Rain

Transcribed by: Andrew Zara (disturbedfreak0520@yahoo.com)

Date last modified: June 12, 2007

PLEASE DO NOT COPY THIS TAB TO ANOTHER SITE
WITHOUT AUTHORS' PERMISSION. THANK YOU.

Tuning: Standard (B,E,A,D,G,B,E)

Guitar 1



     S S S S S S S S S S S S S S S S    S S S S S S S S S S S S S S S S  
E||----------------------------------|----------------------------------|
B||----------------------------------|----------------------------------|
G||----------------------------------|----------------------------------|
D||----------------------------------|----------------------------------|
A||----------------------------------|------------------5-0-------------|
E||--7-0-------------7-0-------------|--7-0-----------------7-0-5-7-0---|
B||------7-0-5-3-0-0-----7-0-5-3-0-0-|------7-0-5-3-0-0---------------7-|


  S S S S S S S S S S S S S S S S    S S S S S S S S S S S S S S S S  
----------------------------------|----------------------------------|
----------------------------------|----------------------------------|
----------------------------------|----------------------------------|
----------------------------------|----------------------------------|
----------------------------------|--------5-----7-5---5-------------|
--7-0-------------7-0-------------|--7-5-7---7-5-----7---7-5-7-5-----|
------7-0-5-3-0-0-----7-0-5-3-0-0-|------------------------------7-5-|


  S S S S S S S S S S S S S S S S    S S S S S S S S S S S S S S S S  
----------------------------------|----------------------------------|
----------------------------------|----------------------------------|
----------------------------------|----------------------------------|
----------------------------------|----------------------------------|
----------------------------------|------------------5-0-------------|
--7-0-------------7-0-------------|--7-0-----------------7-0-5-7-0---|
------7-0-5-3-0-0-----7-0-5-3-0-0-|------7-0-5-3-0-0---------------7-|


  S S S S S S S S S S S S S S S S     S  S  S S  S  S S S  S S S S S S S S  
----------------------------------|----------------------------------------|
----------------------------------|----------------------------------------|
----------------------------------|----------------------------------------|
----------------------------------|----------------------------------------|
----------------------------------|--10-12-14-9-10-12-7-9-10-5-7-9-4-5-7-0-|
--7-0-------------7-0-------------|----------------------------------------|
------7-0-5-3-0-0-----7-0-5-3-0-0-|----------------------------------------|


  S  S S S E  E  S  S S S E  E     S  S S S E  E   S  S  S  S E  E   
--7p-0-----------7p-0-----------|--7p-0-----------10p-9-------------|
-------7-0-L----------7-0-L-----|-------7-0-L-----------12p-0-L-----|
--------------------------------|-----------------------------------|
--------------------------------|-----------------------------------|
--------------------------------|-----------------------------------|
--------------------------------|-----------------------------------|
--------------------------------|-----------------------------------|


  S  S S  S E  E  S  S S  S E  E      S  S  S  S E  E  S  S  S S E  E   
--7p-0------------7p-0------------|--10p-9-------------5p-0-10---------|
-------7p-0-L----------7p-0-L-----|--------12p-0-L-------------0-L-----|
----------------------------------|------------------------------------|
----------------------------------|------------------------------------|
----------------------------------|------------------------------------|
----------------------------------|------------------------------------|
----------------------------------|------------------------------------|


  S  S S  S E  E  S  S S  S E  E     S  S S  S E  E   S  S  S  S E  E   
--7p-0------------7p-0------------|--7p-0------------10p-9-------------|
-------7p-0-L----------7p-0-L-----|-------7p-0-L-----------12p-0-L-----|
----------------------------------|------------------------------------|
----------------------------------|------------------------------------|
----------------------------------|------------------------------------|
----------------------------------|------------------------------------|
----------------------------------|------------------------------------|


  S  S S  S E  E  S  S S  S E  E     S T  T S S S T  T S S S S S S S S S S  
--7p-0------------7p-0------------|----------------------------------------|
-------7p-0-L----------7p-0-L-----|--5-5p-3--------------------------------|
----------------------------------|---------4---4-4p-2-----2-0-------------|
----------------------------------|-----------5--------5-4-----4-0-5-4-----|
----------------------------------|------------------------------------5-4-|
----------------------------------|----------------------------------------|
----------------------------------|----------------------------------------|


   S S S S E  S S S S S S S S S S    S S S S E  S S S S S S S S S S  
|---------------------------------|---------------------------------|
|---------------------------------|---------------------------------|
|---------------------------------|---------------------------------|
|---------------------------------|---------------------------------|
|---------------------------------|---------------------------------|
|--7-5--------7-5---------7-5-----|--7-5--------7-5---------7-5-----|
|------0-0--------0-0---0-------0-|------0-0--------0-0---0-------0-|


  S S S S E  S S S S S S S S S S     S  S  S S  S  S S S  S S S S S S S S    
---------------------------------|-----------------------------------------||
---------------------------------|-----------------------------------------||
---------------------------------|-----------------------------------------||
---------------------------------|-----------------------------------------||
---------------------------------|--10-12-14-9-10-12-7-9-10-5-7-9-4-5-7-0--||
--7-5--------7-5---------7-5-----|-----------------------------------------||
------0-0--------0-0---0-------0-|-----------------------------------------||


  S S S S S S S S S S S S S S S S    S S S S S S S S S S S S S S S S  
----------------------------------|----------------------------------|
----------------------------------|----------------------------------|
----------------------------------|----------------------------------|
----------------------------------|----------------------------------|
----------------------------------|----------------------------------|
----------------------------------|----------------------------------|
--5-3-2-0-L-0-5-3-2-0-L-0-5-3-2-0-|--5-3-2-0-L-0-5-3-2-0-L-0-5-3-2-0-|


  S S S S S S S S S S S S S S S S    S S S S S S S S S S S S S S S S  
----------------------------------|----------------------------------|
----------------------------------|----------------------------------|
----------------------------------|----------------------------------|
----------------------------------|----------------------------------|
----------------------------------|----------------------------------|
----------------------------------|----------------------------------|
--5-3-2-0-L-0-5-3-2-0-L-0-5-3-2-0-|--5-3-2-0-L-0-5-3-2-0-L-0-5-3-2-0-|


  S S  S S S S S S S S S S S S S S    S S  S S S S S S S S S S S S S S  
-----------------------------------|-----------------------------------|
-----------------------------------|-----------------------------------|
-----------------------------------|-----------------------------------|
-----------------------2-4---4-5-L-|-----------------------2-4---4-5-L-|
--2-2h-4---4-5---5-7---------------|--2-2h-4---4-5---5-7---------------|
-----------------------------------|-----------------------------------|
-----------------------------------|-----------------------------------|


  S S  S S S S S S S S S S S S S S    S S  S S S S S S S S S S S S S S  
-----------------------------------|-----------------------------------|
-----------------------------------|-----------------------------------|
-----------------------------------|-----------------------------------|
-----------------------2-4---4-5-L-|-----------------------2-4---4-5-L-|
--2-2h-4---4-5---5-7---------------|--2-2h-4---4-5---5-7---------------|
-----------------------------------|-----------------------------------|
-----------------------------------|-----------------------------------|


   S S  S S S S S S S S S S S S S S    S S  S S S S S S S S S S S S S S    
|-----------------------------------|------------------------------------||
|-----------------------------------|------------------------------------||
|-----------------------------------|------------------------------------||
|-----------------------2-4---4-5-L-|-----------------------2-4---4-5-L--||
|--2-2h-4---4-5---5-7---------------|--2-2h-4---4-5---5-7----------------||
|-----------------------------------|------------------------------------||
|-----------------------------------|------------------------------------||


  S S  S S S S S S S S S S S S S S    S S  S S S S S S S S S S S S S S  
-----------------------------------|-----------------------------------|
-----------------------------------|-----------------------------------|
-----------------------------------|-----------------------------------|
-----------------------2-4---4-5-L-|-----------------------2-4---4-5-L-|
--2-2h-4---4-5---5-7---------------|--2-2h-4---4-5---5-7---------------|
-----------------------------------|-----------------------------------|
-----------------------------------|-----------------------------------|


  S S  S S S S S S S S S S S S S S    S S  S S S S S S S S S S S S S S  
-----------------------------------|-----------------------------------|
-----------------------------------|-----------------------------------|
-----------------------------------|-----------------------------------|
-----------------------2-4---4-5-L-|-----------------------2-4---4-5-L-|
--2-2h-4---4-5---5-7---------------|--2-2h-4---4-5---5-7---------------|
-----------------------------------|-----------------------------------|
-----------------------------------|-----------------------------------|


  S S  S S S S S S S S S S S S S S    S S  S S S S S S S S S S S S S S  
-----------------------------------|-----------------------------------|
-----------------------------------|-----------------------------------|
-----------------------------------|-----------------------------------|
-----------------------2-4---4-5-L-|-----------------------2-4---4-5-L-|
--2-2h-4---4-5---5-7---------------|--2-2h-4---4-5---5-7---------------|
-----------------------------------|-----------------------------------|
-----------------------------------|-----------------------------------|


  S S  S S S S S S S S S S S S S S    S S  S S S S S S S S S S S S S S  
-----------------------------------|-----------------------------------|
-----------------------------------|-----------------------------------|
-----------------------------------|-----------------------------------|
-----------------------2-4---4-5-L-|-----------------------2-4---4-5-L-|
--2-2h-4---4-5---5-7---------------|--2-2h-4---4-5---5-7---------------|
-----------------------------------|-----------------------------------|
-----------------------------------|-----------------------------------|


  W                   W                   W                   W                 
-------------------|-------------------|-------------------|-------------------|
-------------------|-------------------|-------------------|-------------------|
-------------------|-------------------|-------------------|-------------------|
-------------------|-------------------|-------------------|-------------------|
-------------------|-------------------|-------------------|-------------------|
-------------------|-------------------|-------------------|-------------------|
-------------------|-------------------|-------------------|-------------------|


  W                   W                   W                   W                 
-------------------|-------------------|-------------------|-------------------|
-------------------|-------------------|-------------------|-------------------|
-------------------|-------------------|-------------------|-------------------|
-------------------|-------------------|-------------------|-------------------|
-------------------|-------------------|-------------------|-------------------|
-------------------|-------------------|-------------------|-------------------|
-------------------|-------------------|-------------------|-------------------|


   W                   W                   W                 
|-------------------|-------------------|-------------------|
|-------------------|-------------------|-------------------|
|-------------------|-------------------|-------------------|
|-------------------|-------------------|-------------------|
|-------------------|-------------------|-------------------|
|-------------------|-------------------|-------------------|
|-------------------|-------------------|-------------------|


                         S S S S S  S S S  S  S  S  S  S  T   T  S  S  
--------------------||--10-9-7-9-7------7-------14-17-15-17p-15-14-12-|
--------------------||-------------10-8---14-15-----------------------|
--------------------||------------------------------------------------|
--------------------||------------------------------------------------|
--------------------||------------------------------------------------|
--------------------||------------------------------------------------|
--------------------||------------------------------------------------|


                     |---3--|                    
   S  S  S  S  S  S  S   S  S  S  S  S  S  Q     
--14-12-10-12-----------------------------------|
--------------14-12-15p-14-12-------------------|
------------------------------14-16-------------|
------------------------------------16-14-12----|
------------------------------------------------|
------------------------------------------------|
------------------------------------------------|


   S S S S S  S S S  S  S  S  S  S  T   T  S  S  
--10-9-7-9-7------7-------14-17-15-17p-15-14-12-|
-------------10-8---14-15-----------------------|
------------------------------------------------|
------------------------------------------------|
------------------------------------------------|
------------------------------------------------|
------------------------------------------------|


   E   S  E   S   S  S  S   S  S  S  S   S  E    
--19-----17---------14--------12----14p-12-10~--|
------15-----14p-12----12p-10----10-------------|
------------------------------------------------|
------------------------------------------------|
------------------------------------------------|
------------------------------------------------|
------------------------------------------------|


   S S S S S  S S S  S  S  S  S  S  T   T  S  S  
--10-9-7-9-7------7-------14-17-15-17p-15-14-12-|
-------------10-8---14-15-----------------------|
------------------------------------------------|
------------------------------------------------|
------------------------------------------------|
------------------------------------------------|
------------------------------------------------|


                     |---3--|                    
   S  S  S  S  S  S  S   S  S  S  S  S  S  Q     
--14-12-10-12-----------------------------------|
--------------14-12-15p-14-12-------------------|
------------------------------14-16-------------|
------------------------------------16-14-12----|
------------------------------------------------|
------------------------------------------------|
------------------------------------------------|


   S S S S S  S S S  S  S  S  S  S  T   T  S  S  
--10-9-7-9-7--5---7-------14-17-15-17p-15-14-12-|
-------------10-8---14-15-----------------------|
------------------------------------------------|
------------------------------------------------|
------------------------------------------------|
------------------------------------------------|
------------------------------------------------|


               |--3--|  |--3--|                                
   S  S  S  S  S  S  S  S  S  S  T  T  T  T  T  T  T  Q     T  
--------------------------------14-15-17-15-17-19-21-19~----L-|
--14-15-14-17-15-17-19-17-19-20-------------------------------|
--------------------------------------------------------------|
--------------------------------------------------------------|
--------------------------------------------------------------|
--------------------------------------------------------------|
--------------------------------------------------------------|


  W                                         
--L----------------|-------|-------|-------|
-------------------|-------|-------|-------|
-------------------|-------|-------|-------|
-------------------|-------|-------|-------|
-------------------|-------|-------|-------|
-------------------|-------|-------|-------|
-------------------|-------|-------|-------|


  S S S  S S S S  S S S S  S S S S  S  
---------------7-12--------------7-12-|
------8-12--------------8-12----------|
--7-9------7-9------7-9------7-9------|
--------------------------------------|
--------------------------------------|
--------------------------------------|
--------------------------------------|


   S  S  S  S  S  S  S  S  S  S  S  S  S  S  S  S  
--------12-17-19-15-------------------------------|
--------------------13-12-15-14-13-12-------------|
--12-14-------------------------------14-13-12-11-|
--------------------------------------------------|
--------------------------------------------------|
--------------------------------------------------|
--------------------------------------------------|


   S  S  S  S  S  S  S  S  S  S  S  S  S  S  S  S  
--------------------------15-19-17-15-------------|
-----15-19-15-17-15-14-17-------------19-17-15-14-|
--12----------------------------------------------|
--------------------------------------------------|
--------------------------------------------------|
--------------------------------------------------|
--------------------------------------------------|


   |--3--|  |--3--|                                      
   S  S  S  S  S  S  S  S  S  S  S  S  S  S  S  S  S  S  
--------------------------------------------------------|
--17-15-14-17-15-14----------------15----14-12----------|
--------------------17-16-15-14-12----12-------14-12-11-|
--------------------------------------------------------|
--------------------------------------------------------|
--------------------------------------------------------|
--------------------------------------------------------|


  S S S S S S S S S S S S S S S S    S S  S S S S S S S S S  S S  S  S  S  
----------------------------------|---------------------------------------|
--------7---7-8-7---7-----7---7-8-|--7-8-10-8-7-8-7---8-7-8-10-8-10-12-10-|
--9-7-9---9-------9---9-7---9-----|-----------------9---------------------|
----------------------------------|---------------------------------------|
----------------------------------|---------------------------------------|
----------------------------------|---------------------------------------|
----------------------------------|---------------------------------------|


  S  S S S  S S  S  S  S  S S  S  S  S  S S  
----------------------------9---------------|
--8-10-8-7-10-8-10-12-10-12---12-10-12-10-8-|
--------------------------------------------|
--------------------------------------------|
--------------------------------------------|
--------------------------------------------|
--------------------------------------------|


   |--3--|  |--3--|  |--3--|  |--3--|  |--3--|  |--3--|         
   S  S  S  S  S  S  S  S  S  S  S  S  S  S  S  S  S  S  Q      
--------------------------------------15-17-19-17-19-21-19~----|
--------------------14-15-17-15-17-19--------------------------|
--11-12-14-12-14-16--------------------------------------------|
---------------------------------------------------------------|
---------------------------------------------------------------|
---------------------------------------------------------------|
---------------------------------------------------------------|


  S S S  S S S S  S S S S  S S S S  S  
---------------7-12--------------7-12-|
------8-12--------------8-12----------|
--7-9------7-9------7-9------7-9------|
--------------------------------------|
--------------------------------------|
--------------------------------------|
--------------------------------------|


   S  S  S  S  S  S  S  S  S  S  S  S  S  S  S  S  
--------12-17-19-15-------------------------------|
--------------------13-12-15-14-13-12-------------|
--12-14-------------------------------14-13-12-11-|
--------------------------------------------------|
--------------------------------------------------|
--------------------------------------------------|
--------------------------------------------------|


   S  S  S  S  S  S  S  S  S  S  S  S  S  S  S  S  
--------------------------15-19-17-15-------------|
-----15-19-15-17-15-14-17-------------19-17-15-14-|
--12----------------------------------------------|
--------------------------------------------------|
--------------------------------------------------|
--------------------------------------------------|
--------------------------------------------------|


   |--3--|  |--3--|                                      
   S  S  S  S  S  S  S  S  S  S  S  S  S  S  S  S  S  S  
--------------------------------------------------------|
--17-15-14-17-15-14----------------15----14-12----------|
--------------------17-16-15-14-12----12-------14-12-11-|
--------------------------------------------------------|
--------------------------------------------------------|
--------------------------------------------------------|
--------------------------------------------------------|


  S S S S S S S S S S S S S S S S    S S  S S S S S S S S S  S S  S  S  S  
----------------------------------|---------------------------------------|
--------7---7-8-7---7-----7---7-8-|--7-8-10-8-7-8-7---8-7-8-10-8-10-12-10-|
--9-7-9---9-------9---9-7---9-----|-----------------9---------------------|
----------------------------------|---------------------------------------|
----------------------------------|---------------------------------------|
----------------------------------|---------------------------------------|
----------------------------------|---------------------------------------|


  S  S S S  S S  S  S  S  S S  S  S  S  S S  
----------------------------9---------------|
--8-10-8-7-10-8-10-12-10-12---12-10-12-10-8-|
--------------------------------------------|
--------------------------------------------|
--------------------------------------------|
--------------------------------------------|
--------------------------------------------|


   |--3--|  |--3--|  |--3--|  |--3--|  |--3--|  |--3--|         
   S  S  S  S  S  S  S  S  S  S  S  S  S  S  S  S  S  S  Q      
--------------------------------------15-17-19-17-19-21-19~----|
--------------------14-15-17-15-17-19--------------------------|
--11-12-14-12-14-16--------------------------------------------|
---------------------------------------------------------------|
---------------------------------------------------------------|
---------------------------------------------------------------|
---------------------------------------------------------------|


   Picking Using Tapping Technique                                       
   S                               S  S   S  S   S  S   S  S   S  S   S  
------------------------------------------------------------------------|
------------------------------------------------------------------------|
--19p-----------------------------12-18p-12-16p-12-18p-12-19p-12-21p-12-|
------------------------------------------------------------------------|
------------------------------------------------------------------------|
------------------------------------------------------------------------|
------------------------------------------------------------------------|


   S   S  S   S  S   S  S   S  S   S  S   S  
--------------------------------------------|
--------------------------------------------|
--19p-12-18p-12-16p-12-18p-12-19p-12-23p-12-|
--------------------------------------------|
--------------------------------------------|
--------------------------------------------|
--------------------------------------------|


   S   S  S   S  S   S  S   S  S   S  S   S  
--------------------------------------------|
--17p-12-15p-12-14p-12-15p-12-17p-12-24p-12-|
--------------------------------------------|
--------------------------------------------|
--------------------------------------------|
--------------------------------------------|
--------------------------------------------|


   S   S  S   S  S   S  S   S  S   S  S   S  
--------------------------------------------|
--22p-12-20p-12-19p-12-17p-12-15p-12-14p-12-|
--------------------------------------------|
--------------------------------------------|
--------------------------------------------|
--------------------------------------------|
--------------------------------------------|


   S   S  S   S  S   S  S   S  S   S  S   S  
--------------------------------------------|
--------------------------------------------|
--19p-12-18p-12-16p-12-18p-12-19p-12-21p-12-|
--------------------------------------------|
--------------------------------------------|
--------------------------------------------|
--------------------------------------------|


   S   S  S   S  S   S  S   S  S   S  S   S  
--------------------------------------------|
--------------------------------------------|
--19p-12-18p-12-16p-12-18p-12-19p-12-23p-12-|
--------------------------------------------|
--------------------------------------------|
--------------------------------------------|
--------------------------------------------|


   S   S  S   S  S   S  S   S  S   S  S   S  
--------------------------------------------|
--17p-12-15p-12-14p-12-15p-12-17p-12-24p-12-|
--------------------------------------------|
--------------------------------------------|
--------------------------------------------|
--------------------------------------------|
--------------------------------------------|


   S   S  S   S  S   S  S   S  S   S  S   S  
--------------------------------------------|
--22p-12-20p-12-19p-12-17p-12-15p-12-14p-12-|
--------------------------------------------|
--------------------------------------------|
--------------------------------------------|
--------------------------------------------|
--------------------------------------------|


   S   S  S   S  S   S  S   S  S   S  S   S  
--------------------------------------------|
--------------------------------------------|
--19p-12-18p-12-16p-12-18p-12-19p-12-21p-12-|
--------------------------------------------|
--------------------------------------------|
--------------------------------------------|
--------------------------------------------|


   S   S  S   S  S   S  S   S  S   S  S   S  
--------------------------------------------|
--------------------------------------------|
--19p-12-18p-12-16p-12-18p-12-19p-12-23p-12-|
--------------------------------------------|
--------------------------------------------|
--------------------------------------------|
--------------------------------------------|


   S   S  S   S  S   S  S   S  S   S  S   S  
--------------------------------------------|
--17p-12-15p-12-14p-12-15p-12-17p-12-24p-12-|
--------------------------------------------|
--------------------------------------------|
--------------------------------------------|
--------------------------------------------|
--------------------------------------------|


   S   S  S   S  S   S  S   S  S   S  S   S  
--------------------------------------------|
--22p-12-20p-12-19p-12-17p-12-15p-12-14p-12-|
--------------------------------------------|
--------------------------------------------|
--------------------------------------------|
--------------------------------------------|
--------------------------------------------|


   S   S  S   S  S   S  S   S  S   S  S   S  
--------------------------------------------|
--------------------------------------------|
--19p-12-18p-12-16p-12-18p-12-19p-12-21p-12-|
--------------------------------------------|
--------------------------------------------|
--------------------------------------------|
--------------------------------------------|


   S   S  S   S  S   S  S   S  S   S  S   S  
--------------------------------------------|
--------------------------------------------|
--19p-12-18p-12-16p-12-18p-12-19p-12-23p-12-|
--------------------------------------------|
--------------------------------------------|
--------------------------------------------|
--------------------------------------------|


   S   S  S   S  S   S  S   S  S   S  S   S  
--------------------------------------------|
--17p-12-15p-12-14p-12-15p-12-17p-12-24p-12-|
--------------------------------------------|
--------------------------------------------|
--------------------------------------------|
--------------------------------------------|
--------------------------------------------|


                                                \1/               
   S   S  S   S  S   S  S   S  S   S  S   S     Q.     S S        
--------------------------------------------|--------------|----||
--22p-12-20p-12-19p-12-17p-12-15p-12-14p-12-|--12------L---|----||
--------------------------------------------|--------------|----||
--------------------------------------------|--------------|----||
--------------------------------------------|--------------|----||
--------------------------------------------|--------------|----||
--------------------------------------------|--------------|----||

*********************************
*********************************
*********************************

Guitar 2

W                   W                   W                 
E||-------------------|-------------------|-------------------|
B||-------------------|-------------------|-------------------|
G||-------------------|-------------------|-------------------|
D||-------------------|-------------------|-------------------|
A||-------------------|-------------------|-------------------|
E||-------------------|-------------------|-------------------|
B||-------------------|-------------------|-------------------|


  S S S S S S S S S S S S S S S S    S S S S S S S S S S S S S S S S  
----------------------------------|----------------------------------|
----------------------------------|----------------------------------|
--------7-----9-7---7-------------|----------------------------------|
--9-7-9---9-7-----9---9-7-9-7-----|----------------------------------|
------------------------------9-7-|----------------------------------|
----------------------------------|--7-0-------------7-0-------------|
----------------------------------|------7-0-5-3-0-0-----7-0-5-3-0-0-|


  S S S S S S S S S S S S S S S S    S  S S S S S S S S  S S S S S S S  
----------------------------------|------------------------------------|
----------------------------------|------------------------------------|
----------------------------------|------------------------------------|
----------------------------------|------------------------------------|
------------------5-0-------------|------------------------------------|
--7-0-----------------7-0-5-7-0---|--7p-0-------------7p-0-------------|
------7-0-5-3-0-0---------------7-|-------7-0-5-3-0-0------7-0-5-3-0-0-|


   S  S  S S  S  S S S  S S S S S S S S    Q    S  S S S E  E  S  S S S  
----------------------------------------|-------------------------------|
----------------------------------------|-------5p-3-0-0-L-----5p-3-0-0-|
----------------------------------------|-------------------------------|
----------------------------------------|-------------------------------|
--10-12-14-9-10-12-7-9-10-5-7-9-4-5-7-0-|-------------------------------|
----------------------------------------|-------------------------------|
----------------------------------------|-------------------------------|


  E  E  S  S S S E  E  S  S S S    E  E  S  S S S E  E  S  S S S  
-----------------------0h-5-----|--------------------------------|
--L-----5p-3-0-0-L----------0-0-|--L-----5p-3-0-0-L-----5p-3-0-0-|
--------------------------------|--------------------------------|
--------------------------------|--------------------------------|
--------------------------------|--------------------------------|
--------------------------------|--------------------------------|
--------------------------------|--------------------------------|


  E  E  S  S  S S E  E  S  S S  S    E  E  S  S S S E  E  S  S S S  
--------0h-5-10-------------------|--------------------------------|
--L-------------0-L-----3p-0-5p-0-|--L-----5p-3-0-0-L-----5p-3-0-0-|
----------------------------------|--------------------------------|
----------------------------------|--------------------------------|
----------------------------------|--------------------------------|
----------------------------------|--------------------------------|
----------------------------------|--------------------------------|


  E  E  S  S S S E  E  S  S S S    E  E  S  S S S E  E  S  S S S  
-----------------------0h-5-----|--------------------------------|
--L-----5p-3-0-0-L----------0-0-|--L-----5p-3-0-0-L-----5p-3-0-0-|
--------------------------------|--------------------------------|
--------------------------------|--------------------------------|
--------------------------------|--------------------------------|
--------------------------------|--------------------------------|
--------------------------------|--------------------------------|


  S T  T S S S T  T S S S S S S S S S S     S S S S E  S S S S S S S S S S  
----------------------------------------||---------------------------------|
--5-5p-3--------------------------------||---------------------------------|
---------4---4-4p-2-----2-0-------------||---------------------------------|
-----------5--------5-4-----4-0-5-4-----||---------------------------------|
------------------------------------5-4-||---------------------------------|
----------------------------------------||--7-5--------7-5---------7-5-----|
----------------------------------------||------0-0--------0-0---0-------0-|


  S S S S E  S S S S S S S S S S    S S S S E  S S S S S S S S S S  
---------------------------------|---------------------------------|
---------------------------------|---------------------------------|
---------------------------------|---------------------------------|
---------------------------------|---------------------------------|
---------------------------------|---------------------------------|
--7-5--------7-5---------7-5-----|--7-5--------7-5---------7-5-----|
------0-0--------0-0---0-------0-|------0-0--------0-0---0-------0-|


   S  S  S S  S  S S S  S S S S S S S S      S S S S S S S S S S S S S S S S  
-----------------------------------------||----------------------------------|
-----------------------------------------||----------------------------------|
-----------------------------------------||----------------------------------|
-----------------------------------------||----------------------------------|
--10-12-14-9-10-12-7-9-10-5-7-9-4-5-7-0--||----------------------------------|
-----------------------------------------||----------------------------------|
-----------------------------------------||--5-3-2-0-L-0-5-3-2-0-L-0-5-3-2-0-|


  S S S S S S S S S S S S S S S S    S S S S S S S S S S S S S S S S  
----------------------------------|----------------------------------|
----------------------------------|----------------------------------|
----------------------------------|----------------------------------|
----------------------------------|----------------------------------|
----------------------------------|----------------------------------|
----------------------------------|----------------------------------|
--5-3-2-0-L-0-5-3-2-0-L-0-5-3-2-0-|--5-3-2-0-L-0-5-3-2-0-L-0-5-3-2-0-|


  S S S S S S S S S S S S S S S S    S S  S S S S S S S S S S S S S S  
----------------------------------|-----------------------------------|
----------------------------------|-----------------------------------|
----------------------------------|-----------------------------------|
----------------------------------|-----------------------2-4---4-5-L-|
----------------------------------|--2-2h-4---4-5---5-7---------------|
----------------------------------|-----------------------------------|
--5-3-2-0-L-0-5-3-2-0-L-0-5-3-2-0-|-----------------------------------|


  S S  S S S S S S S S S S S S S S    S S  S S S S S S S S S S S S S S  
-----------------------------------|-----------------------------------|
-----------------------------------|-----------------------------------|
-----------------------------------|-----------------------------------|
-----------------------2-4---4-5-L-|-----------------------2-4---4-5-L-|
--2-2h-4---4-5---5-7---------------|--2-2h-4---4-5---5-7---------------|
-----------------------------------|-----------------------------------|
-----------------------------------|-----------------------------------|


  S S  S S S S S S S S S S S S S S     S S  S S S S S S S S S S S S S S  
-----------------------------------||-----------------------------------|
-----------------------------------||-----------------------------------|
-----------------------------------||-----------------------------------|
-----------------------2-4---4-5-L-||-----------------------2-4---4-5-L-|
--2-2h-4---4-5---5-7---------------||--2-2h-4---4-5---5-7---------------|
-----------------------------------||-----------------------------------|
-----------------------------------||-----------------------------------|


  S S  S S S S S S S S S S S S S S      S S  S S S S S S S S S S S S S S  
------------------------------------||-----------------------------------|
------------------------------------||-----------------------------------|
------------------------------------||-----------------------------------|
-----------------------2-4---4-5-L--||-----------------------2-4---4-5-L-|
--2-2h-4---4-5---5-7----------------||--2-2h-4---4-5---5-7---------------|
------------------------------------||-----------------------------------|
------------------------------------||-----------------------------------|


  S S  S S S S S S S S S S S S S S    S S  S S S S S S S S S S S S S S  
-----------------------------------|-----------------------------------|
-----------------------------------|-----------------------------------|
-----------------------------------|-----------------------------------|
-----------------------2-4---4-5-L-|-----------------------2-4---4-5-L-|
--2-2h-4---4-5---5-7---------------|--2-2h-4---4-5---5-7---------------|
-----------------------------------|-----------------------------------|
-----------------------------------|-----------------------------------|


  S S  S S S S S S S S S S S S S S    S S  S S S S S S S S S S S S S S  
-----------------------------------|-----------------------------------|
-----------------------------------|-----------------------------------|
-----------------------------------|-----------------------------------|
-----------------------2-4---4-5-L-|-----------------------2-4---4-5-L-|
--2-2h-4---4-5---5-7---------------|--2-2h-4---4-5---5-7---------------|
-----------------------------------|-----------------------------------|
-----------------------------------|-----------------------------------|


  S S  S S S S S S S S S S S S S S    S S  S S S S S S S S S S S S S S  
-----------------------------------|-----------------------------------|
-----------------------------------|-----------------------------------|
-----------------------------------|-----------------------------------|
-----------------------2-4---4-5-L-|-----------------------2-4---4-5-L-|
--2-2h-4---4-5---5-7---------------|--2-2h-4---4-5---5-7---------------|
-----------------------------------|-----------------------------------|
-----------------------------------|-----------------------------------|


  S S  S S S S S S S S S S S S S S    W                   W                 
-----------------------------------|-------------------|-------------------|
-----------------------------------|-------------------|-------------------|
-----------------------------------|-------------------|-------------------|
-----------------------2-4---4-5-L-|-------------------|-------------------|
--2-2h-4---4-5---5-7---------------|-------------------|-------------------|
-----------------------------------|-------------------|-------------------|
-----------------------------------|-------------------|-------------------|


  W                   W                   W                   W                 
-------------------|-------------------|-------------------|-------------------|
-------------------|-------------------|-------------------|-------------------|
-------------------|-------------------|-------------------|-------------------|
-------------------|-------------------|-------------------|-------------------|
-------------------|-------------------|-------------------|-------------------|
-------------------|-------------------|-------------------|-------------------|
-------------------|-------------------|-------------------|-------------------|


  W                   W                    W                 
-------------------|-------------------||-------------------|
-------------------|-------------------||-------------------|
-------------------|-------------------||-------------------|
-------------------|-------------------||-------------------|
-------------------|-------------------||-------------------|
-------------------|-------------------||-------------------|
-------------------|-------------------||-------------------|


  W                   W                                       
-------------------|-------------------|--------------------||
-------------------|-------------------|--------------------||
-------------------|-------------------|--------------------||
-------------------|-------------------|--------------------||
-------------------|-------------------|--------------------||
-------------------|-------------------|--------------------||
-------------------|-------------------|--------------------||


  W                   H        H           H.           Q     
-------------------|--------------------|--------------------|
-------------------|--------------------|--------------------|
-------------------|--------------------|--------------------|
--5----------------|--2--------4--------|--5------------7----|
--5----------------|--2--------4--------|--5------------7----|
--3----------------|--0--------2--------|--3------------5----|
-------------------|--------------------|--------------------|


  W                   W                   H        H         
-------------------|-------------------|--------------------|
-------------------|-------------------|--------------------|
-------------------|-------------------|--------------------|
-------------------|--5----------------|--2--------4--------|
--2----------------|--5----------------|--2--------4--------|
--2----------------|--3----------------|--0--------2--------|
--0----------------|-------------------|--------------------|


                                            \1/               
  H.           Q       W                    W                 
--------------------|-------------------|--------------------|
--------------------|-------------------|--------------------|
--------------------|-------------------|--------------------|
--5------------7----|-------------------|--------------------|
--5------------7----|--2----------------|--------------------|
--3------------5----|--2----------------|--10----------------|
--------------------|--0----------------|--------------------|


-------------------|-------------------|-------------------|-------------------|
-------------------|-------------------|-------------------|-------------------|
-------------------|-------------------|-------------------|-------------------|
-------------------|-------------------|-------------------|-------------------|
-------------------|-------------------|-------------------|-------------------|
-------------------|-------------------|-------------------|-------------------|
-------------------|-------------------|-------------------|-------------------|


-------------------|-------------------|-------------------|-------------------|
-------------------|-------------------|-------------------|-------------------|
-------------------|-------------------|-------------------|-------------------|
-------------------|-------------------|-------------------|-------------------|
-------------------|-------------------|-------------------|-------------------|
-------------------|-------------------|-------------------|-------------------|
-------------------|-------------------|-------------------|-------------------|


-------------------|-------------------|-------------------|-------------------|
-------------------|-------------------|-------------------|-------------------|
-------------------|-------------------|-------------------|-------------------|
-------------------|-------------------|-------------------|-------------------|
-------------------|-------------------|-------------------|-------------------|
-------------------|-------------------|-------------------|-------------------|
-------------------|-------------------|-------------------|-------------------|


-------------------|-------------------|-------------------|-------------------|
-------------------|-------------------|-------------------|-------------------|
-------------------|-------------------|-------------------|-------------------|
-------------------|-------------------|-------------------|-------------------|
-------------------|-------------------|-------------------|-------------------|
-------------------|-------------------|-------------------|-------------------|
-------------------|-------------------|-------------------|-------------------|


                                                              H.            
-------------------|-------------------|-------------------|---------------|
-------------------|-------------------|-------------------|---------------|
-------------------|-------------------|-------------------|---------------|
-------------------|-------------------|-------------------|---------------|
-------------------|-------------------|-------------------|---------------|
-------------------|-------------------|-------------------|--3------------|
-------------------|-------------------|-------------------|---------------|


  H.              H.              H.              H.              H.            
---------------|---------------|---------------|---------------|---------------|
---------------|---------------|---------------|---------------|---------------|
---------------|---------------|---------------|---------------|---------------|
---------------|---------------|---------------|---------------|---------------|
---------------|---------------|---------------|---------------|---------------|
--5------------|--7------------|--9------------|--3------------|--5------------|
---------------|---------------|---------------|---------------|---------------|


  H.              H.              H.              H.              H.            
---------------|---------------|---------------|---------------|---------------|
---------------|---------------|---------------|---------------|---------------|
---------------|---------------|---------------|---------------|---------------|
---------------|---------------|---------------|---------------|---------------|
---------------|--7------------|---------------|---------------|---------------|
--7------------|---------------|--3------------|--5------------|--7------------|
---------------|---------------|---------------|---------------|---------------|


  H.              H.              H.              H.              H.            
---------------|---------------|---------------|---------------|---------------|
---------------|---------------|---------------|---------------|---------------|
---------------|---------------|---------------|---------------|---------------|
---------------|---------------|---------------|---------------|---------------|
---------------|---------------|---------------|---------------|--7------------|
--9------------|--3------------|--5------------|--7------------|---------------|
---------------|---------------|---------------|---------------|---------------|


  Q    Q                      
------------|---------------||
------------|---------------||
------------|---------------||
------------|---------------||
------------|---------------||
--7---------|---------------||
------------|---------------||







Duration Legend
---------------
W - whole
H - half
Q - quarter
E - 8th
S - 16th
T - 32nd
X - 64th
. - note dotted
|-n-|  - n-tuplets


Tablature Legend
----------------
L - tied note
x - dead note
g - grace note
(n) - ghost note
> - accentuded note
NH - natural harmonic
AH - artificial harmonic
TH - tapped harmonic
SH - semi harmonic
PH - pitch harmonic
h - hammer on
p - pull off
b - bend
br - bendRelease
pb - preBend
pbr - preBendRelease
brb - bendReleaseBend
\n/ - tremolo bar dip
\n - tremolo bar dive
-/n - tremolo bar Release up
/n\ - tremolo bar inverted dip
/n - tremolo bar return
-\n - tremolo bar Release down
S - shift slide
s - legato slide
/ -  slide into from below or out of upwards
\ -  slide into from above or out of downwards
~ - vibrato
W - wide vibrato
tr - trill
TP - tremolo picking
T - tapping
S - slap
P - pop
< - fade in
^ - brush up
v - brush down
comments
We did not receive enough feedback on this tab! Please rate:
print report bad tab
1 2 3 4 5
I want to post or [tab]
guest
You may want to rate the tab now too:
select rating
Please do not post tabs as comments. Select "correction" instead!