Oops, an error
Loading. Please wait.

Biaxident Bass Tab

1,583 views 3 this week
no commentswrite comment
1 2 3 4 5
please rate
add to favorites launch autoscroll
font size
0
reset
Autoscroll
+/-
esc
set tempo
stop
Contributor
Difficulty
intermediate
WARNING: You are trying to view
                                    content from Ultimate-Guitar.com
                                    in an unauthorized application,
                                    which is prohibited.

                                    Please use an official Ultimate
                                    Guitar Tabs application for iPhone,
                                    iPad or Android to access legitimate
                                    chords, guitar, bass, and drum tabs
                                    from Ultimate-Guitar.com database.

                                    Type "ultimate guitar tabs" in Apple
                                    App Store's or Android Market's
                                    search to find the application.
Liquid Tension Experiment: Biaxident

Transcribed by: Andrew Zara (disturbedfreak0520@yahoo.com)

Date last modified: June 12, 2007

PLEASE DO NOT COPY THIS TAB TO ANOTHER SITE 
WITHOUT AUTHORS' PERMISSION. THANK YOU.

Tuning: Standard (E,A,D,G)

W                   W                   W                 
G||-------------------|-------------------|-------------------|
D||-------------------|-------------------|-------------------|
A||-------------------|-------------------|-------------------|
E||-------------------|-------------------|-------------------|


  W                   W                   W                   W                 
-------------------|-------------------|-------------------|-------------------|
-------------------|-------------------|-------------------|-------------------|
-------------------|-------------------|-------------------|-------------------|
-------------------|-------------------|-------------------|-------------------|


  H        H           H        H           H        H         
--------------------|--------------------|--------------------|
-----------0--------|--L-----------------|-----------0--------|
--------------------|-----------0--------|--L-----------------|
--------------------|--------------------|--------------------|


  H        H           H        H           H        H         
--------------------|--------------------|--------------------|
--------------------|-----------0--------|--L-----------------|
-----------3--------|--L-----------------|-----------0--------|
--3-----------------|--------------------|--------------------|


  H        H           H        H           W                 
--------------------|--------------------|-------------------|
-----------0--------|--------------------|-------------------|
--L-----------------|-----------3--------|--L----------------|
--------------------|--3-----------------|-------------------|


  H        H           W                   W                 
--------------------|-------------------|-------------------|
--------------------|-------------------|-------------------|
--L-----------------|-------------------|-------------------|
--------------------|-------------------|-------------------|


  W                   Q.     S S H           Q.     S S H         
-------------------|-----------2-7--------|--L------7-9----------|
-------------------|----------------------|-------------7--------|
-------------------|----------------------|----------------------|
-------------------|----------------------|----------------------|


  H        H           H        Q.      E      W                 
--------------------|------------------21--|--21----------------|
--L--------0--------|----------------------|--------------------|
--------------------|--2--------3------19--|--19----------------|
--------------------|----------------------|--------------------|


  H        H           E  Q    H        E     Q    H        E  E   
--L-----------------|----------------------|----------------------|
--------------------|----------------------|--2-------------------|
--L-----------------|-----0----2--------L--|-------3--------L--2--|
-----------3--------|--L-------------------|----------------------|


  E  H        Q.        E  H        E  Q       H        E  Q    E   
---------------------|----------------------|----------------------|
---------------------|----------------------|--------------2----3--|
--L--0---------------|-----------------0----|--2--------L----------|
--------------1------|--L--3--------L-------|----------------------|


  H        Q    Q       Q    Q    Q    Q       S S H        S  S Q     
---------------------|-----------------9----|--L---9--------9-11------|
--L--------2----0----|--L----0----0---------|----9---------------9----|
---------------------|----------------------|-------------------------|
---------------------|----------------------|-------------------------|


  H        Q    Q       Q    H        Q       H.           Q     
---------------------|---------------------|--------------------|
--L--------9---------|-------7-------------|--------------------|
----------------7----|--L-------------5----|--L-----------------|
---------------------|---------------------|---------------0----|


  E  H        E  Q       E  Q.     Q    Q       Q    H        Q     
----------------------|----------------------|---------------------|
----------------------|----------------------|---------------------|
-----------------2----|--L--2------2---------|-------0-------------|
--L--0--------L-------|-----------------0----|--L------------------|


  H.           E  E     E  E.  S E  T S. Q.        Q.     Q.     E.  S  
---------------------|--------------------------|----------------------|
------------------2--|--L--3-----0--L----2------|---------0------2-----|
---------------------|--------------------------|--2-------------------|
---------------------|--------------------------|----------------------|


  E  E  E  E  Q    E.  S    E  T S. Q.     Q.        Q.     E  E  E  E  E   
-------------------------|------------------------|------------------------|
--3--2--------2----3-----|--0--L----2-------------|--0---------------------|
--------2----------------|-----------------2------|---------0-----0--2--0--|
-----------0-------------|------------------------|------------4-----------|


  E  E  S. T Q    E.  S E     T S. Q.     Q.     E     Q    E.  S E  E  E  E   
---------------------------|------------------------|-------------------------|
-------------2----3-----0--|--L----2-------------0--|--L----2-----3--2--------|
---------------------------|--------------2---------|-------------------2-----|
--4-----0------------------|------------------------|----------------------0--|


  Q    E.  S E  T S. Q       E  Q.     Q.     E     E  T S. E  Q    E  E  T S.  
--------------------------|----------------------|-----------------------------|
--2----3-----0--L----2----|--L---------0---------|-----------------------------|
--------------------------|-----2----------------|----------0--2-------3--L----|
--------------------------|----------------------|--4--L-----------------------|


  E  Q    H        E     E  H.           E     H        E  Q.      
----------------------|---------------------|---------------------|
--0--2----------------|---------------------|--------------0------|
----------2--------L--|--L--0------------3--|--L--------L---------|
----------------------|---------------------|---------------------|


  Q.     H        E     E  H.           E     Q    Q.     E  E  E   
---------------------|---------------------|-----------------------|
--L------------------|---------------------|-------2------0-----0--|
---------2--------L--|--L--0------------3--|--L--------------------|
---------------------|---------------------|-----------------------|


  E  H.           E     H        E  Q.        Q.     Q    Q    E   
---------------------|---------------------|----------------------|
---------------------|---------------------|-------------------0--|
-----2------------0--|--L--------L---------|--------------0-------|
---------------------|--------------3------|--L------2------------|


  E  E  E  E  Q    E  E     E  Q    Q    Q.        Q.     E  E.  T E  T E   
-------------------------|----------------------|--------------------------|
--L----------------------|----------2-----------|--------------------------|
-----0--0-----0----0-----|-----3---------0------|--L---------0---L------2--|
----------------------3--|--L-------------------|--------------------------|


  E  H.           E     E.  T T E  Q    Q.        Q.     E  E.  T E  T E   
---------------------|-------------------------|--------------------------|
---------------------|--0---L------------------|--------------------------|
--L--3---------------|----------0-------0------|--L---------0---L------2--|
---------------------|-------------------------|--------------------------|


  E  E.  H        S E     E  Q    H        E     E  E  E.  T E  T Q    E   
-----------------------|----------------------|---------------------------|
-----------------------|----------------------|---------------------------|
--L--3-----------------|----------0--------L--|--L-----0---L------2----3--|
-----------------------|----------------------|---------------------------|


  H        E  E  E.  T T    E  Q    H        E     E  E  E.  T E  T Q    E   
-------------------------|----------------------|---------------------------|
-----------------0---L---|----------------------|---------------------------|
--L--------L-------------|--0-------0--------L--|--L-----0---L------2----3--|
-------------------------|----------------------|---------------------------|


  Q    Q.     Q.        E  H.           E     H        E  Q.      
---------------------|---------------------|---------------------|
-------0------0------|--L------------------|---------------------|
--L------------------|-----2------------0--|--L--------L--3------|
---------------------|---------------------|---------------------|


  Q.     H        E     E  H.           E     H        E  Q.      
---------------------|---------------------|---------------------|
---------0--------L--|--L------------------|---------------------|
--L------------------|-----2------------0--|--L--------L--3------|
---------------------|---------------------|---------------------|


  Q.     E  E  E  E  E     H        E  Q.        Q.     H        E   
------------------------|---------------------|---------------------|
--2------0-----0--------|---------------------|---------------------|
---------------------2--|--L--------L--0------|--L------------------|
------------------------|---------------------|---------3--------L--|


  E  Q    Q    Q    E     E  E  Q    E  Q    E     E  Q    H        E   
-----------------------|------------------------|----------------------|
---------------0-------|------------------------|-----2----------------|
----------0---------0--|--0-----0----0-------3--|--L-------0--------L--|
--L--2-----------------|----------------3-------|----------------------|


  E  E  E.  T E  T Q    E     H        E  E  E.  T T    E  Q    H        E   
---------------------------|-------------------------|----------------------|
---------------------------|-----------------0---L---|----------------------|
--L-----0---L------2----3--|--L--------L-------------|--0-------0--------L--|
---------------------------|-------------------------|----------------------|


  E  E  E.  T E  T Q    E     S H        S Q    E     E  H.           E   
---------------------------|-----------------------|---------------------|
---------------------------|-----------------------|---------------------|
--L-----0---L------2----3--|--L--------------------|-----0---------------|
---------------------------|-----------------------|---------------------|


  E.  T E  T Q    Q.        Q.     E  E.  T T E  E     E  H.           E   
-------------------------|--------------------------|---------------------|
-------------------------|------------0---L---------|---------------------|
--0---L------2----3------|--L-----------------0-----|-----0---------------|
-------------------------|--------------------------|---------------------|


  E.  T E  T Q    Q.        Q.     H        E     H        E  Q.      
-------------------------|---------------------|---------------------|
-------------------------|--0------0--------L--|--L--------L---------|
--0---L------2----3------|---------------------|---------------------|
-------------------------|---------------------|--------------0------|


  Q.     H        E     H        E  Q.        Q.     H        E   
---------------------|---------------------|---------------------|
---------------------|---------------------|---------------------|
---------------------|--------------2------|--L------2--------L--|
--L------0--------L--|--L--------L---------|---------------------|


  E  E  Q.     Q.        Q.     Q    Q.        Q.     Q    Q.      
----------------------|---------------------|---------------------|
-----2--4-------------|---------------------|---------------------|
--L-------------------|--------------0------|--0------0-----------|
---------------0------|--0------0-----------|---------------------|


  Q.     H        E     E  H        Q.        Q.     H        E   
---------------------|---------------------|---------------------|
---------0--------L--|--L------------------|---------------------|
---------------------|-----0---------------|---------------------|
---------------------|--------------0------|--L------0--------L--|


  E  E  Q.     Q.        Q.     H        E     H        E  Q.      
----------------------|---------------------|---------------------|
--------0-------------|---------------------|---------------------|
-----2---------2------|--L------2--------L--|--L--------L---------|
--L-------------------|---------------------|--------------0------|


  Q.     Q    Q.        Q.     Q    Q.        W                 
---------------------|---------------------|-------------------|
---------------------|--------------0------|--L----------------|
--------------0------|--L------0-----------|-------------------|
--L------0-----------|---------------------|-------------------|


  H        E  E  Q       E.  S E  T S. Q.     E     Q    Q.     E.  S E   
----------------------|--------------------------|-----------------------|
--L--------L-----2----|--3-----0--L----2---------|-------0------2-----3--|
----------------------|-----------------------2--|--L--------------------|
----------------------|--------------------------|-----------------------|


  E  E  E  Q    E.  S E     T S. Q.     Q.     E     Q    E  E  E  E  E  E   
-------------------------|------------------------|-------------------------|
--2--------2----3-----0--|--L----2-------------0--|--L----------------------|
-----2-------------------|--------------2---------|-------0-----0--2--0-----|
--------0----------------|------------------------|----------4-----------4--|


  E  S. T Q    E.  S E  T S.    Q.     Q.     Q       E  E.  S E  E  E  E  E   
-----------------------------|---------------------|--------------------------|
----------2----3-----0--L----|--2-------------0----|--L--2-----3--2--------2--|
-----------------------------|---------2-----------|-----------------2--------|
-----0-----------------------|---------------------|--------------------0-----|


  E  E.  S E  T S. Q.        Q.     Q.     E  E     T S. E  Q    E  E  T S. E   
--------------------------|----------------------|-----------------------------|
--L--3-----0--L----2------|---------0------------|--------------------------0--|
--------------------------|--2-------------------|-------0--2-------3--L-------|
--------------------------|-------------------4--|--L--------------------------|


  Q    H.              Q    Q    Q    Q       H        Q    Q     
--------------------|----------------------|---------------------|
--2-----------------|----------------------|-----------1----0----|
-------0------------|------------0---------|---------------------|
--------------------|--1----0---------0----|--L------------------|


  Q    H.              H.           Q       H        Q    Q     
--------------------|--------------------|---------------------|
--------------------|--------------------|---------------------|
--3----0------------|--------------------|-----------0---------|
--------------------|--1------------0----|--L------------------|


  Q    H.              Q    Q    Q    Q       H        Q    Q     
--------------------|----------------------|---------------------|
--------------------|----------------------|-----------1----0----|
-------0------------|------------3---------|---------------------|
--------------------|--1----1---------0----|--L------------------|


  Q    H.              H.           Q       H        H         
--------------------|--------------------|--------------------|
--------------------|--------------------|--------------------|
--3----0------------|--------------------|-----------0--------|
--------------------|--1------------0----|--L-----------------|


  Q    E  E  E  E  E  E     E  E  E  E  E  E  Q       H        Q    Q     
-------------------------|--2--1--4--7--4--5-------|---------------------|
----------------2-----2--|-------------------------|---------------------|
--L----------2-----3-----|-------------------------|---------------------|
----------4--------------|--------------------5----|--L--------1----0----|


  Q    H.              Q    Q    Q    Q       H        H         
--------------------|----------------------|--------------------|
--------------------|--1----0--------------|--------------------|
--0-----------------|------------3----0----|--L-----------------|
-------0------------|----------------------|-----------1--------|


  Q    H.              Q    H        Q       H        Q    Q     
--------------------|---------------------|---------------------|
--------------------|---------------------|---------------------|
--------------------|--0-------------0----|--L------------------|
--L----0------------|---------------------|-----------1----1----|


  Q    H.              Q    Q    Q    Q       H        H         
--------------------|----------------------|--------------------|
--------------------|--1----0--------------|--------------------|
--3-----------------|------------3----0----|--L-----------------|
-------0------------|----------------------|-----------1--------|


  Q    H.              H.           E  E     E  E  E  E   E   E   E   E   
--------------------|------------------1--|--4--9--5--9--14--13--16--19--|
--------------------|---------------------|------------------------------|
--------------------|--0------------------|------------------------------|
--L----0------------|---------------------|------------------------------|


   E   E   E  E   S  S  E   E   E      E   S  S  E   E   E  S. S S. S. T  
--16--17--14-----13-14-16----------|--14---------------------------------|
---------------------------15--14--|------15-14-----15--14---------------|
-----------------------------------|------------15---------------------3-|
-----------------------------------|------------------------8--8-5--3----|


  T S. H.           E     E  Q    Q    Q.        Q.     Q    Q    E   
-----------------------|----------------------|----------------------|
----2------------------|----------2-----------|----------------------|
--L-----------------3--|--L--2---------0------|--L-------------------|
-----------------------|----------------------|---------4----3----1--|


  E  Q.     E  E  E  E     Q    E  E  E  Q.        Q.     Q    Q.      
------------------------|-----------------------|---------------------|
------------------------|-----------------------|---------0-----------|
------------------------|----------------4------|--0------------------|
--L------------------0--|--L----0-----0---------|---------------------|


  E  H.           E     E  Q    Q    Q.        Q.     Q    Q    E   
---------------------|----------------------|----------------------|
---------------------|----------2-----------|----------------------|
------------------3--|--L--2---------0------|--L-------------------|
---------------------|----------------------|---------4----3----1--|


  E  Q.     E  E  E  E     Q    E  E  E  Q.        Q.     E  E  E  E  E   
------------------------|-----------------------|------------------------|
------------------------|-----------------------|------------0-----3-----|
------------------------|----------------0------|--4---------------------|
--L------------------0--|--L----0-----0---------|------------------------|


  E  E  Q    E  E  Q       E  E  E  E  E  E  E  E     E  E  E  E  E  Q    E   
--2-----1---------------|--------------2-----1-----|--4-----7-----4--5----4--|
-------------3--2-------|--0-----3-----------------|-------------------------|
------------------------|--------------------------|-------------------------|
------------------------|--------------------------|-------------------------|


  E  Q    H        E     E  Q    Q    Q    E     H        E  Q    E   
--2-------------------|-----------------------|----------------------|
----------------------|---------------2-------|----------------------|
----------------------|-----3----2---------0--|--L--------L----------|
----------------------|-----------------------|--------------4----3--|


  E  Q    Q.     E  E     E  Q.     E  E  E  E     Q    Q.     Q    E   
-----------------------|------------------------|----------------------|
-----------------------|------------------------|--------------0-------|
-----------------------|---------------------4--|--L----0--------------|
--L--1-----------------|-----0------0-----0-----|----------------------|


  Q.     H        E     E  Q    Q    Q    E     H        E  Q    E   
---------------------|-----------------------|----------------------|
---------------------|---------------2-------|----------------------|
---------------------|-----3----2---------0--|--L--------L----------|
---------------------|-----------------------|--------------4----3--|


  E  Q    Q.     E  E     E  Q.     E  E  E  E     Q    Q.     E  E  E   
-----------------------|------------------------|-----------------------|
-----------------------|------------------------|-----------------0-----|
-----------------------|---------------------0--|--L----4---------------|
--L--1-----------------|-----0------0-----0-----|-----------------------|


  E  E  E  E  Q    E  E     Q    E  E  E  E  E  E     E  E  E  E  E  E  E  E   
--------2-----1----------|-------------------2-----|--1-----4-----7-----4--5--|
--3----------------3--2--|-------0-----3-----------|--------------------------|
-------------------------|-------------------------|--------------------------|
-------------------------|-------------------------|--------------------------|


  E  E  E  Q    Q    E     E  Q    Q    E  E  E     E  H.           E   
--L--4--2-------1-------|------------------------|---------------------|
---------------------3--|--2---------------------|---------------------|
------------------------|----------2----0--------|-----2------------0--|
------------------------|------------------4-----|---------------------|


  H        E  Q.        Q.     H        E     E  H.           E   
---------------------|---------------------|---------------------|
---------------------|---------0--------L--|--L------------------|
--L--------L--3------|--L------------------|-----2------------0--|
---------------------|---------------------|---------------------|


  H        E  Q.        Q.     E  E  E  E  E     H        E  Q.      
---------------------|------------------------|---------------------|
---------------------|--2------0-----0--------|---------------------|
--L--------L--3------|---------------------2--|--L--------L--0------|
---------------------|------------------------|---------------------|


  Q.     H        E     E  Q    Q    Q    E     E  E  Q    E  Q    E   
---------------------|-----------------------|------------------------|
---------------------|---------------0-------|------------------------|
--L------------------|----------0---------0--|--0-----0----0-------3--|
---------3--------L--|--L--2-----------------|----------------3-------|


  E  Q    H        E     E  E  E.  T E  T Q    E     H        E  E  E.  T T  
----------------------|---------------------------|-------------------------|
-----2----------------|---------------------------|-----------------0---L---|
--L-------0--------L--|--L-----0---L------2----3--|--L--------L-------------|
----------------------|---------------------------|-------------------------|


  E  Q    H        E     E  E  E.  T E  T Q    E     S H        S Q    E   
----------------------|---------------------------|-----------------------|
----------------------|---------------------------|-----------------------|
--0-------0--------L--|--L-----0---L------2----3--|--L--------------------|
----------------------|---------------------------|-----------------------|


  E  H.           E     E.  T E  T Q    Q.        Q.     E  E.  T T E  E   
---------------------|-------------------------|--------------------------|
---------------------|-------------------------|------------0---L---------|
-----0---------------|--0---L------2----3------|--L-----------------0-----|
---------------------|-------------------------|--------------------------|


  E  H.           E     E.  T E  T Q    Q.        E  H        Q.      
---------------------|-------------------------|---------------------|
---------------------|-------------------------|-----0--------0------|
-----0---------------|--0---L------2----3------|--L------------------|
---------------------|-------------------------|---------------------|


  W                   E  E  Q.     Q.        W                 
-------------------|-----5--7-------------|-------------------|
--L----------------|--L------------7------|--L----------------|
-------------------|----------------------|-------------------|
-------------------|----------------------|-------------------|


  E  H        Q.        Q.     Q    Q.        Q.     Q    Q.      
---------------------|---------------------|---------------------|
--L--2--------0------|--L------0-----------|---------------------|
---------------------|--------------2------|--L------2----3------|
---------------------|---------------------|---------------------|


  Q.     H        E     H        E  Q.        Q.     H        E   
---------------------|---------------------|---------------------|
---------------------|---------------------|---------0--------L--|
--L------3--------L--|--L--------L---------|---------------------|
---------------------|---------------------|---------------------|


  Q.     E  E  Q.        Q.     H        E     E  H        Q.      
---------0--1--2------|--L------------------|---------------------|
--L-------------------|---------------------|--------------0------|
----------------------|---------0--------L--|--L--0---------------|
----------------------|---------------------|---------------------|


  Q.     Q    Q.        H        E  Q.        Q.     Q.     Q     
---------------------|---------------------|---------------------|
--L------0-----------|---------------------|---------------------|
--------------2------|--L--------L--3------|--L------3------3----|
---------------------|---------------------|---------------------|


  H        E  Q.        H.           E  E     Q.     H        E   
---------------------|---------------------|---------------------|
---------------------|---------------------|---------------------|
--L--------L---------|------------------0--|--L------2--------L--|
--------------3------|--L------------L-----|---------------------|


  H        E  Q.        E  H.           E     Q.     H        E   
---------------------|---------------------|---------------------|
--------------2------|--L------------------|---------------------|
--L--------L---------|-----3------------L--|--L------2--------0--|
---------------------|---------------------|---------------------|


  H.           E  E     H        E  Q    E     W                 
---------------------|----------------------|-------------------|
---------------------|----------------------|-------------------|
--L------------L-----|----------------------|-------------------|
------------------1--|--L--------L--1----3--|--L----------------|


  H        E  Q.        H.           E  E     Q.     H        E   
---------------------|---------------------|---------------------|
---------------------|------------------2--|--L------3--------L--|
--------------2------|--L------------L-----|---------------------|
--L--------L---------|---------------------|---------------------|


  H        E  Q.        E  H.           E     E  H        Q.      
---------------------|---------------------|---------------------|
--L--------L--2------|--L--0------------L--|--L------------------|
---------------------|---------------------|---------------------|
---------------------|---------------------|---------------------|


  E  H.           E     H.           E  E     E  H.           E   
---------------------|---------------------|---------------------|
---------------------|---------------------|---------------------|
---------------------|------------------0--|--1--2------------2--|
-----0------------0--|--L------------L-----|---------------------|


  Q.     Q    E  E  E     E  Q.     Q.     E     E  Q.     Q.     E   
-----------------------|----------------------|----------------------|
-----------------------|----------------------|----------------------|
--L------2----2--2--2--|--2-------------------|-----0------0------0--|
-----------------------|-----0------0------0--|--L-------------------|


  E  E  E  E  E  Q    E     E  E  E   E   E   E   E   E   
-------------------------|--------7--14------14----------|
-----0--0--0--0-------0--|--L--0---------12------12------|
--L----------------------|-------------------------------|
-------------------------|---------------------------10--|


  E   Q.      Q.     E     Q.     Q    Q    E     E  Q.     Q.     E   
------------------------|----------------------|------------4---------|
------------------------|----------------------|----------------------|
------------------------|----------------------|-----2-------------2--|
--L--12------12------0--|--L------0----0----0--|--L-------------------|


  Q.     Q    Q.        E  Q.     Q.     E     E  Q.     Q.     E   
---------------------|----------------------|----------------------|
---------------------|----------------------|-------------------2--|
--L------2----2------|--L----------------2--|--L--0------0---------|
---------------------|-----0------0---------|----------------------|


  E  Q.     H           Q    E  Q.     E  E     E  Q.     Q.     E   
---------------------|-----------------------|----------------------|
--L--0------0--------|--L-------0---------0--|--L--2------2------2--|
---------------------|-------0---------0-----|----------------------|
---------------------|-----------------------|----------------------|


  E  Q.     Q.     E     E  Q.     Q.     E     E  H        Q    E   
----------------------|----------------------|-----9----------------|
--L-------------------|-----2------2------2--|--L-------------------|
-----2------2------2--|--L-------------------|--------------7----7--|
----------------------|----------------------|----------------------|


  E  H        Q    E     E  H        Q    E     E  H        Q    E   
----------------------|----------------------|----------------------|
----------------------|----------------------|----------------------|
--L-------------------|----------------------|-------------------3--|
-----7--------7----7--|--L--6--------6----6--|--L--5--------5-------|


  E  H.           E     E  E  E  E  Q.     E     E  Q.     Q.     E   
---------------------|------------------------|----------------------|
-----0------------0--|--L--2--2--2--2------2--|--2-------------------|
--L------------------|------------------------|-----2------2------2--|
---------------------|------------------------|----------------------|


  E  E  E  E  Q.     E     E  Q.     Q.     E     E  Q.     Q.     E   
------------------------|----------------------|----------------------|
-----2--2--2--2------2--|--2-------------------|----------------------|
--2---------------------|-----3------3------3--|--0-------------------|
------------------------|----------------------|-----3------3------3--|


  E  Q.     Q.     E     E  Q.     Q.     E     E  H.           E   
----------------------|----------------------|---------------------|
----------------------|----------------------|-----0------------L--|
-----1------1------1--|--1----------------3--|--L------------------|
--3-------------------|-----1------1---------|---------------------|


  E  Q    H        E     H        Q    E  E     E  E  E  E  E  E  E  E   
----------------------|----------------------|--------------------------|
--L--0----------------|-------------------0--|-----2-----0--------------|
----------------------|----------------2-----|--2-----2-----0--2-----0--|
----------------------|-----------0----------|--------------------3-----|


  Q    E  E  E  E  E  E     E  E  E  E  Q    E  E     E  E  E  E  E  E  E  E   
-------------------------|-------------------------|--------------------------|
----------0-----2-----0--|----------------------0--|-----2-----0--------------|
-------2-----2-----2-----|--0--2-----0-------2-----|--2-----2-----0--2-----0--|
--0----------------------|--------3-----0----------|--------------------3-----|


  Q    E  E  E  E  E  E     E  E  E  E  Q    E  E     E  E  E  E  E  E  E  E   
-------------------------|-------------------------|--------------------------|
----------0-----2-----0--|----------------------0--|-----2-----0--------------|
-------2-----2-----2-----|--0--2-----0-------2-----|--2-----2-----0--2-----0--|
--0----------------------|--------3-----0----------|--------------------3-----|


  Q    E  E  E  E  E  E     E  E  E  E  Q    E  E     E  E  E  E  E  E  E  E   
-------------------------|-------------------------|--------------------------|
----------0-----2-----0--|----------------------0--|-----2-----0--------------|
-------2-----2-----2-----|--0--2-----0-------2-----|--2-----2-----0--2-----0--|
--0----------------------|--------3-----0----------|--------------------3-----|


  Q    E  E  E  E  E  E     E  E  E  E  Q    E  E     E  E  E  E  E  E  E  E   
-------------------------|-------------------------|--------------------------|
----------0-----2-----0--|----------------------0--|-----2-----0--------------|
-------2-----2-----2-----|--0--2-----0-------2-----|--2-----2-----0--2-----0--|
--0----------------------|--------3-----0----------|--------------------3-----|


  Q    E  E  E  E  E  E     E  E  E  E  Q    E  E     E  E  E  E  E  E  E  E   
-------------------------|-------------------------|--------------------------|
----------0-----2-----0--|----------------------0--|-----2-----0--------------|
-------2-----2-----2-----|--0--2-----0-------2-----|--2-----2-----0--2-----0--|
--0----------------------|--------3-----0----------|--------------------3-----|


  Q    E  E  E  E  E  E     E  E  E  E  Q    E  E     E  E  E  E  E  E  E  E   
-------------------------|-------------------------|--------------------------|
----------0-----2-----0--|----------------------0--|-----2-----0--------------|
-------2-----2-----2-----|--0--2-----0-------2-----|--2-----2-----0--2-----0--|
--0----------------------|--------3-----0----------|--------------------3-----|


  Q    E  E  E  E  E  E     E  E  E  E  Q    E  E     E  E  E  E  E  E  E  E   
-------------------------|-------------------------|--------------------------|
----------0-----2-----0--|----------------------0--|-----2-----0--------------|
-------2-----2-----2-----|--0--2-----0-------2-----|--2-----2-----0--2-----0--|
--0----------------------|--------3-----0----------|--------------------3-----|


  Q    E  E  E  E  E  E     E  E  E  E  Q    Q       E  E  E  E  E  E  E  E   
-------------------------|------------------------|--------------------------|
----------0-----2-----0--|------------------------|-----2--2--------2--2-----|
-------2-----2-----2-----|--0--2-----0------------|--------------------------|
--0----------------------|--------3----------0----|--0--------0--0--------0--|


  E  E  Q    E   E   E  E     E   E   E  E  E   E   Q     
--------0----0--12--12--0--|--0--12--12--0--0--12--14----|
-----2---------------------|-----------------------------|
---------------------------|-----------------------------|
--0------------------------|-----------------------------|


   E   E   E   E   E   E   E   E      E   E   Q     E   E   E   E   
------14--14----------14--14------|------14------------14--14------|
----------------------------------|--------------------------------|
--12----------12--12----------12--|--12------12----12----------12--|
----------------------------------|--------------------------------|


   E   E   E   E   E   E  Q       E  E  E  E  E  E  E  E   
------14--14-------------------|--------------------------|
--------------------------9----|--9--9--9--9--9--9--9--9--|
--12----------12--12--12-------|--------------------------|
-------------------------------|--------------------------|


  E  E   Q     E   E   E   E      E   E   E   E   E   E  Q     
------------------------------|--------------------------7----|
--9--9--10----10--10--10--10--|--10--10--10--10--10--10-------|
------------------------------|-------------------------------|
------------------------------|-------------------------------|


  E  E  E  E  E  E  E  E     E  E  Q    E  E  E  E     E  E  E  E  E  E  Q     
--7--7--7--7--7--7--7--7--|--7--7--6----6--6--6--6--|--6--6--6--6--6--6--7----|
--------------------------|-------------------------|-------------------------|
--------------------------|-------------------------|-------------------------|
--------------------------|-------------------------|-------------------------|


  H.           Q      
--9-----------------||
--------------------||
--------------------||
--------------------||




Duration Legend
---------------
W - whole
H - half
Q - quarter
E - 8th
S - 16th
T - 32nd
X - 64th
. - note dotted
|-n-|  - n-tuplets


Tablature Legend
----------------
L - tied note
x - dead note
g - grace note
(n) - ghost note
> - accentuded note
NH - natural harmonic
AH - artificial harmonic
TH - tapped harmonic
SH - semi harmonic
PH - pitch harmonic
h - hammer on
p - pull off
b - bend
br - bendRelease
pb - preBend
pbr - preBendRelease
brb - bendReleaseBend
\n/ - tremolo bar dip
\n - tremolo bar dive
-/n - tremolo bar Release up
/n\ - tremolo bar inverted dip
/n - tremolo bar return
-\n - tremolo bar Release down
S - shift slide
s - legato slide
/ -  slide into from below or out of upwards
\ -  slide into from above or out of downwards
~ - vibrato
W - wide vibrato
tr - trill
TP - tremolo picking
T - tapping
S - slap
P - pop
< - fade in
^ - brush up
v - brush down
comments
We did not receive enough feedback on this tab! Please rate:
print report bad tab
1 2 3 4 5
I want to post or [tab]
guest
You may want to rate the tab now too:
select rating
Please do not post tabs as comments. Select "correction" instead!