Oops, an error
Loading. Please wait.

Biaxident Tab

ver2
ver2

Whole song

More versions @911Tabs.com
2,576 views 1 this week
no commentswrite comment
1 2 3 4 5
please rate
add to favorites launch autoscroll
font size
0
reset
Autoscroll
+/-
esc
set tempo
stop
Contributor
Difficulty
advanced
WARNING: You are trying to view
                                    content from Ultimate-Guitar.com
                                    in an unauthorized application,
                                    which is prohibited.

                                    Please use an official Ultimate
                                    Guitar Tabs application for iPhone,
                                    iPad or Android to access legitimate
                                    chords, guitar, bass, and drum tabs
                                    from Ultimate-Guitar.com database.

                                    Type "ultimate guitar tabs" in Apple
                                    App Store's or Android Market's
                                    search to find the application.
Gtr I (E A D G B E) - 'Piano'
Gtr II (E A D G B E) - 'Acoustic Guitar'
Gtr III (E A D G B E) - 'Clean Electric'
Gtr IV (E A D G B E) - 'Distorted Guitar'
Gtr V (E A D G B E) - 'Rock Organ'
Gtr VI (E A D G B E) - 'Synth'


   Intro
    Q=92
    E                  Bm
   4/4
    Gtr I
    S  S S  S S S  S S  S S S S S S S S
||----------------12---10-----7---------|
||o-9------12------9----7---7-------7---|
||--9-------9---9----9----7-------7---7-|
||-------9----9-----------------9-------|
||o---11--------------------------------|
||--0-------------------7---------------|


  E                  C        D/C      C
  S  S S  S S S  S S  S  S  S  S  S  S  S  S
|---------------12---15-------14-------12-----|
|-9------12------9---17----13-15-------13-----|
|-9-------9---9----9----12----------12----12--|
|------9----9--------------------14-----------|
|---11----------------------------------------|
|-0-------------------8-----------------------|


  G                Bb       C/Bb     Bb
   S S S S S S S S  S  S  S  S  S  S  S  S
|-10-----7---------10-------12-------13----|
|--8---8-------8---11-------13-------15----|
|----7-------7---7----10-------10-------10-|
|----------9-------------12-------12-------|
|-10---------------------------------------|
|-------------------6----------------------|


  1.                           2.
  F/A         C Dadd9          F/A         C
                              2/4
  S S S S S S E Q  S S S S     S S S S S S E
|-8-----5-----3-5-----------||-8-----5-----3--||
|-6---6-------5-7----------o||-6---6-------5--||
|---5-------5---9--7--------||---5-------5----||
|---------7-----0----0---6--||---------7------||
|-0-----------3--------5---o||-0-----------3--||
|---------------------------||----------------||


 Theme #1
  D                          Am
 4/4
  Gtr II
  H.                +E S S   H.                +E. S
  |                  | | |   |                  |  |
  /                  / / /   /                  /  /

  Gtr I
  E. S +E   E  +H            E. S +E   E  +H
|-2--5-(5)-10-(10)---------|-0--5-(5)--8--(8)--------|
|-3--7-(7)-10-(10)---------|-1--5-(5)-10-(10)--------|
|-2--7-(7)-11-(11)---------|-2--5-(5)--9--(9)--------|
|-0------------------------|-------------------------|
|--------------------------|-0-----------------------|
|--------------------------|-------------------------|


  D             Gm                C
  Q.       +S S Q.          S S   H.            +E. S
  |         | | |           | |   |              |  |
  /         / / /           / /   /              /  /

  E. S +E   E   E.  S  +E   E     E. S +E  E H
|-2--3-(3)--5---6---8--(8)-10---|-3--1-(1)-0------------|
|-3--5-(5)--7---8--10-(10)-11---|-5--3-(3)-1-1----------|
|-2-------------7---------------|-5----------0----------|
|-0-----------------------------|-----------------------|
|-------------------------------|-3---------------------|
|---------------3---------------|-----------------------|


  D                            Am
   H.                  +E. S    H.                  +E. S
   |                    |  |    |                    |  |
   /                    /  /    /                    /  /

   E.  S  +E   E  +H            E.  S  +E   E  +H
|-14--17-(17)-22-(22)--------|-12--17-(17)-20-(20)--------|
|-15--19-(19)-22-(22)--------|-13--17-(17)-22-(22)--------|
|-14--19-(19)-23-(23)--------|-14--17-(17)-21-(21)--------|
|--0-------------------------|----------------------------|
|----------------------------|--0-------------------------|
|----------------------------|----------------------------|


  D                Gm                 C
   Q.         +S S  Q.          S S    W                      +W
   |           | |  |           | |    |                       |
   /           / /  /           / /    /                       /

   E.  S  +E   E    E.  S  +E   E      E.  S  +E   E  H       +W
|-14--15-(15)-17---18--20-(20)-22---|-15--13-(13)-12-------|---------||
|-15--17-(17)-19---20--22-(22)-23---|-17--15-(15)-13-13----|-(13)----||
|-14---------------19---------------|-17-------------12----|-(12)----||
|--0--------------------------------|----------------------|---------||
|-----------------------------------|--3-------------------|---------||
|-------------------3---------------|----------------------|---------||


  D                           Am                       D           Bm
  H             Q       Q     H           E. S +E  E   H           H
|-2------------10-------5---|-0-----------8--7-(7)-3-|-2----------------------|
|-3-------------------------|-1----------------------|-3-----------3----------|
|-2------------11-------7---|-2-----------9--7-(7)-4-|-2-----------4----------|
|-0-------------------------|------------------------|-0-----------4----------|
|---------------------------|-0----------------------|-------------2----------|
|---------------------------|------------------------|------------------------|
|
| Gtrs II, III
| E. S +E   E  +E   E  +Q     E. S +E  E  Q     Q      E. S +E   E E. S +E  E
|------------------10-(10)--|-8--7-(7)-8-------------|------------------------|
|-7--8-(8)-10-(10)----------|------------10-----8----|-7--8-(8)-10----------7-|
|---------------------------|------------------------|-------------7--9-(9)---|
|---------------------------|------------------------|------------------------|
|---------------------------|------------------------|------------------------|
|---------------------------|------------------------|------------------------|


  C                       D
  H          E   E  E E   H             E.    S  +E  E
|-----------15--10-10-3-|-2-------------2-----3--(3)-5---|
|-5---------13---8--8---|-3-------------3-----5--(5)-7---|
|-5-------------------5-|-2------------------------------|
|-5---------------------|-0------------------------------|
|-3---------------------|--------------------------------|
|-----------------------|--------------------------------|
|
| E. S +Q   +H            E. S +E   E  +E   E    +Q
|-----------------------|------------------10---(10)-----|
|-----------------------|-7--8-(8)-10-(10)---------------|
|-9--7-(7)--(7)---------|--------------------------------|
|-----------------------|--------------------------------|
|-----------------------|--------------------------------|
|-----------------------|--------------------------------|


  Am                                D               Bm
   H             +E   S S S S S S   Q     S  S  S S Q     E  S S
|--0-------------(0)-12-8-8-5-5-0-|-2-----------2---------7------|
|--1-------------(1)-10-----------|-3-----------3---3--------0---|
|--2-------------(2)----9-9-5-5-2-|-2--------2----2-4-----7----0-|
|---------------------------------|-0-----0---------4------------|
|--0-------------(0)--------------|-----------------2------------|
|---------------------------------|------------------------------|
|
|  E.  S  +E   E  Q       Q         E. S +E     E   E. S +E  E
|-12--10-(10)-12--8-------7-------|------------------------------|
|---------------------------------|-7--8-(8)---10------------7---|
|---------------------------------|-----------------7--9-(9)-----|
|---------------------------------|------------------------------|
|---------------------------------|------------------------------|
|---------------------------------|------------------------------|


  C                   Csus2
  W                    S  S S S S S S S S S S S S S S S
|-------------------|--3--------3-------3-------3--------||
|-5-----------------|-----3-------3-------3-------3------||
|-5-----------------|-------5-------5-------5-------5----||
|-5-----------------|---------5-------5-------5-------5--||
|-3-----------------|------------------------------------||
|-------------------|------------------------------------||
|
| E.  S  +E  E H      +W
|-------------------|------------------------------------||
|-8--10-(10)-7------|------------------------------------||
|--------------7----|-(7)--------------------------------||
|-------------------|------------------------------------||
|-------------------|------------------------------------||
|-------------------|------------------------------------||


 Theme #2
  G5              G5/A  G5/B            G5/E
 7/8
  Gtrs II, III
  E S S +E  E +E  E E   E S S +E  E +E  E E
|---------------------|---------------------|
|-----3-(3)-----------|-----3-(3)-----------|
|---0-------0-(0)---0-|---0-------0-(0)---0-|
|---------------------|---------------------|
|-----------------0---|-2-------------------|
|-3-------------------|-----------------0---|


  G5/C            G5/B  G5/A        G5/F
                       4/4
  E S S +E  E +E  E E   E S S +E  E E S S +E  E
|---------------------|--------------------------|
|-----3-(3)-----------|-----3-(3)-------3-(3)----|
|---0-------0-(0)---0-|---0-------0---0-------0--|
|---------------------|--------------------------|
|-3---------------2---|-0------------------------|
|---------------------|-------------1------------|


  G5                              G5/A
 7/8
   E     S  S +E      E    +E      E     E
|---------------------------------------------|
|-----------3-(3)-----------------------------|
|--------0------------0----(0)-----------0----|
|---------------------------------------------|
|----------------------------------0----------|
|--3------------------------------------------|
|
| Gtr I
|  S  S  S  S  S   S  S  S  S   S  S  S  S  S
|--------------------15-----------------------|
|-----------------15-15--------15-------------|
|----------12h14--------14p12-----14p12-------|
|-------12------------------------------12----|
|-10h12------------------------------------12-|
|---------------------------------------------|


  G5/B                               G5/E
   E        S  S +E      E    +E      E     E
|---------------------------------------------|
|--------------3-(3)--------------------------|
|-----------0------------0----(0)-----------0-|
|---------------------------------------------|
|--2------------------------------------------|
|-------------------------------------0-------|
|
|  |--3--|
|  S  S  S  S  S  S   S  S  S  S   S  S  S  E
|--------------------15-----------------------|
|----------------15--15-------15--------------|
|----------12h14--------14p12-----14p12-------|
|-------12------------------------------12----|
|-10h12------------------------------------12-|
|---------------------------------------------|


  G5/C                            G5/B          D
                                               4/4
   E     S  S +E      E    +E      E     E      E S S +E  E Q   Q
|---------------------------------------------|-----------2-3---5---||
|-----------3-(3)-----------------------------|-----3-(3)-----------||
|--------0------------0----(0)-----------0----|---2-----------------||
|---------------------------------------------|-0-------------------||
|--3-------------------------------2----------|---------------------||
|---------------------------------------------|---------------------||
|
|  S  S  S  S  S   S  S  S  S   S  S  S  S  S   H           E E E E
|--------------------15-----------------------|-2-------------0-2-5-||
|-----------------15-15--------15-------------|-3-----------3-------||
|----------12h14--------14p12-----14p12-------|-2-------------0-2-7-||
|-------12------------------------------12----|-0-----------4-------||
|-10h12------------------------------------12-|---------------------||
|---------------------------------------------|---------------------||


 Theme #1 - Remake #1
  E
  Gtr II
  W
  |
  /

  Gtr III
  W
|--------------------------------------------|
|--------------------------------------------|
|--------------------------------------------|
|--------------------------------------------|
|-2------------------------------------------|
|-0------------------------------------------|
|
| Gtr I
| Q  S S E +S   T  T  T  T  T  T  S  S  S  S
|--------7-(7)-------------12h16-19-16-------|
|-9------9-(9)----------12-------17----17----|
|-9--9---9-(9)-------13-------------------16-|
|-9----9----------14-------------------------|
|--------7-(7)-14----------------------------|
|-0------------------------------------------|


  Bm
   W
   |
   /

   H    +E      E      +Q
|------------------------------------|
|------------------------------------|
|--------------<4>----(<4>)----------|
|--4----(4)--------------------------|
|--2----(2)--------------------------|
|------------------------------------|
|
|  H     S   S  S   S   S    S  S  S
|-10----22---------21----------19----|
|--7----19-----19--17-------17-15----|
|--7--------19---------18---------16-|
|------------------------------------|
|-------17---------16----------14----|
|--7---------------------------------|


  E                       Am               D
   H                       H                W
   |                       |                |
   /                       /                /

   H                       H                H             +E  E +Q
|----------------------------------------|---------------------------|
|----------------------------------------|---------------------------|
|----------------------------------------|--------------------0-(0)--|
|--------------------------2-------------|--4-------------(4)--------|
|--2-----------------------0-------------|--5-------------(5)--------|
|--0-------------------------------------|---------------------------|
|
|  S  S  S  S  S  S  S  S  E.  S  +E   E    E.  S  +E   E  H
|-16-------17-------19----20--22-(22)-24-|-17--15-(15)-14------------|
|-17-------19-------21----22--24-(24)-25-|-19--17-(17)-15-15---------|
|----16-------16----------21-------------|-19-------------14---------|
|-------18-------18----18----------------|--0--------------0---------|
|--------------------------0-------------|---------------------------|
|--0-------------------------------------|---------------------------|


  E
  W
  |
  /

  Q  +S  S E +Q               Q
|----------0-(0)-------------<5>---------------------|
|--------0-------------------------------------------|
|----------------------------------------------------|
|----------------------------------------------------|
|-2--(2)---------------------------------------------|
|-0--(0)---------------------------------------------|
|
| Q   S  S E +E   T  T  T  T  T  T  T  T  T  T  T  T
|----------7-(7)-24p19-------19p16-------16p12-------|
|-9--------9-(9)-------21----------17----------12----|
|-9---9----9-(9)----------21----------16----------13-|
|-9------9-------------------------------------------|
|----------7-(7)-------------------------------------|
|-0--------------------------------------------------|


  Bm
  W
  |
  /

  W
|------------------------------|
|------------------------------|
|------------------------------|
|-4----------------------------|
|-2----------------------------|
|------------------------------|
|
| H     S  S  S  S  S  S  S  S
|-7----22----21----19----17----|
|-7----19----17----15----14----|
|-7-------19----18----16----14-|
|------------------------------|
|------------------------------|
|-7----------------------------|


  E                 Am                  D
   H                 H                   W
   |                 |                   |
   /                 /                   /

   Q       S  E.     Q      +S  E.       W
|-------------0-----------------------|----------------------||
|----------0--------------------0-----|----------------------||
|-------------------------------------|--2-------------------||
|--------------------2------(2)-------|--0-------------------||
|--2-----------------0------(0)-------|----------------------||
|--0----------------------------------|----------------------||
|
|  E.  S  +E      E  E.  S  +E      E    E.  S  +E   E  H
|-16--17-(17)----19-20--22-(22)----24-|-17--15-(15)-14-------||
|-17--19-(19)----21-22--24-(24)----25-|-19--17-(17)-15-15----||
|-16----------------21----------------|-19-------------14----||
|-------------------------------------|--0--------------0----||
|--------------------0----------------|----------------------||
|--0----------------------------------|----------------------||


 Theme #3
  N.C.
                              5/16
  Gtr IV
  PM         ~~~~~~       ~~        ~
  S E  S S e S +E   E +S  E.   e  S E
|----------------------------|--------|
|----------------------------|--------|
|----------------------------|--------|
|----------------------------|--------|
|---7--8---5-7-(7)--------5--|-7--8-7-|
|-0----------------/7-(7)----|--------|
|
| Gtr V
| S E  S S e S +E   E +S  E.   e  S E
|----------------------------|--------|
|----------------------------|--------|
|----------------------------|--------|
|---9-10---7-9-(9)--------7--|-9-10-9-|
|-------------------9-(9)----|--------|
|-7--------------------------|--------|


 4/4                          7/16
  PM         ~~~~~~       ~~
  S E  S S e S +E   E +S  E.   S S S S S S S
|----------------------------|---------------|
|----------------------------|---------------|
|----------------------------|---------------|
|----------------------------|---------------|
|---7--8---5-7-(7)--------5--|-------------5-|
|-0----------------/7-(7)----|-5-4-5-7-5-4---|
|
| S E  S S e S +E   E +S  E.   S S S S S S S
|----------------------------|---------------|
|----------------------------|---------------|
|----------------------------|---------------|
|---9-10---7-9-(9)--------7--|-------------7-|
|-------------------9-(9)----|-7-6-7-9-7-6---|
|-7--------------------------|---------------|


 4/4                          5/16
  PM         ~~~~~~       ~~        ~
  S E  S S e S +E   E +S  E.   e  S E
|----------------------------|--------|
|----------------------------|--------|
|----------------------------|--------|
|----------------------------|--------|
|---7--8---5-7-(7)--------5--|-7--8-7-|
|-0----------------/7-(7)----|--------|
|
| S E  S S e S +E   E +S  E.   e  S E
|----------------------------|--------|
|----------------------------|--------|
|----------------------------|--------|
|---9-10---7-9-(9)--------7--|-9-10-9-|
|-------------------9-(9)----|--------|
|-7--------------------------|--------|


 4/4                          6/8
  PM         ~~~~~~       ~~
  S E  S S e S +E   E +S  E.   S e S E S e S E
|----------------------------|-----------------||
|----------------------------|-----------------||
|----------------------------|-----------------||
|----------------------------|-----------------||
|---7--8---5-7-(7)--------5--|-----------3-5-7-||
|-0----------------/7-(7)----|---4-5-7---------||
|
| S E  S S e S +E   E +S  E.   S e S E S e S E
|----------------------------|-----------------||
|----------------------------|-----------------||
|----------------------------|-----------------||
|---9-10---7-9-(9)--------7--|-----------5-7-9-||
|-------------------9-(9)----|---6-7-9---------||
|-7--------------------------|-----------------||


 Theme #4a
  Bsus4     Asus2          C            D
                                                     ~~~
  S  e E  S  E.  E  T  T    E   S  E  S  T  T  S  S  E.
|------------------10h12p|=10---------------------------|
|----9-9-10-12--12-------|-----12----12-10h12p10--------|
|------------------------|--------12-------------11-----|
|------------------------|--------------------------12--|
|------------------------|------------------------------|
|------------------------|------------------------------|
|
| Q.         Q.             Q.           E        S  E.
|-0----------0-----------|--0------------2--------3--5--|
|-0----------0-----------|--1------------3--------------|
|------------------------|------------------------------|
|------------------------|---------------0--------------|
|-2----------0-----------|--3---------------------------|
|------------------------|------------------------------|


  Bsus4     Asus2          C                  D
                          5/8
  S  e E  S  E.  E  T  T    E   S  S  S  T  T  Q
|------------------10h12p|=10-----------------------|
|----9-9-10-12--12-------|-----12----12-10h12p10----|
|------------------------|--------12----------------|
|------------------------|--------------------------|
|------------------------|--------------------------|
|------------------------|--------------------------|
|
| Q.         Q.             Q.                 e E
|-0----------0-----------|--0------------------2-2--|
|-0----------0-----------|--1------------------3-3--|
|------------------------|--------------------------|
|------------------------|---------------------0-0--|
|-2----------0-----------|--3-----------------------|
|------------------------|--------------------------|


  Bsus4     Asus2             C/G         D/F#    F/A             C/G
 6/8
                                           ~~~                  ~~~~~~~
  S  e E  S  E.  S  +S    S    E  S  E  S  Q.       E  S  S  S  S  +Q    +E
|---------------------------|-15-14----14-------|-----------------------------||
|----9-9-10-12--12-(12)/-17-|-------17----15----|-/13-12-10-12----------------||
|---------------------------|-------------------|--------------12-(12)--(12)\-||
|---------------------------|-------------------|-----------------------------||
|---------------------------|-------------------|-----------------------------||
|---------------------------|-------------------|-----------------------------||
|
| Q.         Q.                E  S  E  S  Q.       E  S  S  S  S   Q.
|-0----------0--------------|--8-10--8-10--5----|---5-------------------------||
|-0----------0--------------|--5-----5-----7----|---6--8--6--8--5--(5)--------||
|---------------------------|-------------------|---5---------------5---------||
|---------------------------|--5-----5-----4----|-----------------------------||
|-2----------0--------------|-------------------|---0-------------------------||
|---------------------------|-------------------|-----------------------------||


 Theme #4b
  A                   E/B C             Dadd9
 3/4
  E   S S +S  E S +E  E   E   S S +S  E S  S  S E
|-------------0---------|-------------------------|
|---------------0-(0)---|-------------------------|
|-------2-(2)-----------|-------0-(0)-----------0-|
|-----2-----------------|-----2-------2-------4---|
|-0-------------------2-|-3-------------3s=5------|
|-----------------------|-------------------------|
|
| S E   S  S  e S +E  E   S E   S  S  e S +Q
|-----------------------|-------------------------|
|---2---3-----5-2-(2)-0-|---1---3-----5-3-(3)-----|
|---2---2-----2-2-(2)-1-|---0---0-----0-2-(2)-----|
|-----------------------|---------------0-(0)-----|
|-0-------------------2-|-3-----------------------|
|-----------------------|-------------------------|


  A                   E/B (C)         D5
                         5/8
  E   S S +S  E S +E  E   E   Q       E E
|-------------0---------|------------------|
|---------------0-(0)---|-------------3-3--|
|-------2-(2)-----------|-------------2-2--|
|-----2-----------------|-------------0-0--|
|-0-------------------2-|-3----------------|
|-----------------------|------------------|
|
| S E   S  S  e S +E  E   S S S S S S Q
|-----------------------|------------------|
|---2---3-----5-2-(2)-0-|------------------|
|---2---2-----2-2-(2)-1-|-5-4-------4------|
|-----------------------|-----7-5-7---7----|
|-0-------------------2-|------------------|
|-----------------------|------------------|


  A                   E/B C             Dadd9
 3/4
  E   S S +S  E S +E  E   E   S S +S  E S  S  S E
|-------------0---------|-------------------------|
|---------------0-(0)---|-------------------------|
|-------2-(2)-----------|-------0-(0)-----------0-|
|-----2-----------------|-----2-------2-------4---|
|-0-------------------2-|-3-------------3s=5------|
|-----------------------|-------------------------|
|
| S E   S  S  e S +E  E   S E   S  S  e S +Q
|-----------------------|-------------------------|
|---2---3-----5-2-(2)-0-|---1---3-----5-3-(3)-----|
|---2---2-----2-2-(2)-1-|---0---0-----0-2-(2)-----|
|-----------------------|---------------0-(0)-----|
|-0-------------------2-|-3-----------------------|
|-----------------------|-------------------------|


  F/A                 G/B C5 C/ED
                         5/8
      PM                         ~~
  E   S S +S  e S +E  E   E. E.  Q
|-----------------------|------------||
|-----------------------|------------||
|-------2-(2)-----------|------------||
|-----------------------|----2--/4---||
|-0---0-------0-0-(0)-2-|-3----------||
|-----------------------|------------||
|
| S E   S  S  e S +E  E   E. E.  Q
|---1---3-----5-1-(1)-3-|------------||
|---1---1-----1-1-(1)-3-|-1--1---3---||
|-----------------------|-0--0---2---||
|-----------------------|----2---0---||
|-0-------------------2-|-3----------||
|-----------------------|------------||


 Theme #4a - Revisited
  Bsus4     Asus2          C            D
 6/8
                                                     ~~~
  S  e E  S  E.  E  T  T    E   S  E  S  T  T  S  S  E.
|------------------10h12p|=10---------------------------|
|----9-9-10-12--12-------|-----12----12-10h12p10--------|
|------------------------|--------12-------------11-----|
|------------------------|--------------------------12--|
|------------------------|------------------------------|
|------------------------|------------------------------|
|
| Q.         Q.             Q.           E        S  E.
|-0----------0-----------|--0------------2--------3--5--|
|-0----------0-----------|--1------------3--------------|
|------------------------|------------------------------|
|------------------------|---------------0--------------|
|-2----------0-----------|--3---------------------------|
|------------------------|------------------------------|


  Bsus4     Asus2          C                  D
                          5/8
  S  e E  S  E.  E  T  T    E   S  S  S  T  T  Q
|------------------10h12p|=10----------------------|
|----9-9-10-12--12-------|-----12----12-10h12p10---|
|------------------------|--------12---------------|
|------------------------|-------------------------|
|------------------------|-------------------------|
|------------------------|-------------------------|
|
| Q.         Q.             Q.                 e E
|-0----------0-----------|--0------------------2-2-|
|-0----------0-----------|--1------------------3-3-|
|------------------------|-------------------------|
|------------------------|---------------------0-0-|
|-2----------0-----------|--3----------------------|
|------------------------|-------------------------|


  Bsus4     Asus2             C/G         D/F#    F/A             C/G
 6/8
                                           ~~~                  ~~~~~~~
  S  e E  S  E.  S  +S    S    E  S  E  S  Q.       E  S  S  S  S  +Q    +E
|---------------------------|-15-14----14-------|-----------------------------||
|----9-9-10-12--12-(12)/-17-|-------17----15----|-/13-12-10-12----------------||
|---------------------------|-------------------|--------------12-(12)--(12)\-||
|---------------------------|-------------------|-----------------------------||
|---------------------------|-------------------|-----------------------------||
|---------------------------|-------------------|-----------------------------||
|
| Q.         Q.                E  S  E  S  Q.       E  S  S  S  S   Q.
|-0----------0--------------|--8-10--8-10--5----|---5-------------------------||
|-0----------0--------------|--5-----5-----7----|---6--8--6--8--5--(5)--------||
|---------------------------|-------------------|---5---------------5---------||
|---------------------------|--5-----5-----4----|-----------------------------||
|-2----------0--------------|-------------------|---0-------------------------||
|---------------------------|-------------------|-----------------------------||


 Theme #4b - Revisited
  A               E/B C           Dadd9  A               E/B (C)          D5
 3/4                                                        5/8
  PM                                     PM                               ~
  S E S S e S +E  E   S E S S e S +Q     S E S S e S +E  E    S S S S S S Q
|-------------------|------------------|-------------------|------------------|
|---2-3---5-2-(2)-0-|---1-3---5-3-(3)--|---2-3---5-2-(2)-0-|------------------|
|---2-2---2-2-(2)-1-|---0-0---0-2-(2)--|---2-2---2-2-(2)-1-|-/5-4-------4-----|
|-------------------|-----------0-(0)--|-------------------|------7-5-7---7---|
|-0-----------------|------------------|-0-----------------|------------------|
|-------------------|------------------|-------------------|------------------|
|
| S E S S e S +E  E   S E S S e S +Q     S E S S e S +E  E    S S S S S S Q
|-------------------|------------------|-------------------|------------------|
|---2-3---5-2-(2)-0-|---1-3---5-3-(3)--|---2-3---5-2-(2)-0-|------------------|
|---2-2---2-2-(2)-1-|---0-0---0-2-(2)--|---2-2---2-2-(2)-1-|--5-4-------4-----|
|-------------------|-----------0-(0)--|-------------------|------7-5-7---7---|
|-0---------------2-|-3----------------|-0---------------2-|------------------|
|-------------------|------------------|-------------------|------------------|


  A               E/B C           Dadd9
 3/4
  PM
  S E S S e S +E  E   S E S S e S +Q
|-------------------|------------------|
|---2-3---5-2-(2)-0-|---1-3---5-3-(3)--|
|---2-2---2-2-(2)-1-|---0-0---0-2-(2)--|
|-------------------|-----------0-(0)--|
|-0-----------------|------------------|
|-------------------|------------------|
|
| S E S S e S +E  E   S E S S e S +Q
|-------------------|------------------|
|---2-3---5-2-(2)-0-|---1-3---5-3-(3)--|
|---2-2---2-2-(2)-1-|---0-0---0-2-(2)--|
|-------------------|-----------0-(0)--|
|-0---------------2-|-3----------------|
|-------------------|------------------|


  F/A              G/B C5 C/E   D
                      4/4
  S E S S  e S +E  E   E. S +E    E  +H
|--------------------|----8-(8)-/10-(10)----||
|---6-8---10-6-(6)-8-|-8--------------------||
|---5-5----5-5-(5)-7-|-5--5-(5)--/7--(7)----||
|--------------------|----------------------||
|--------------------|----------------------||
|--------------------|----------------------||
|
| S E S S  e S +E  E   E. S +E    E  +H
|---1-3----5-1-(1)-3-|----------------------||
|---1-1----1-1-(1)-3-|-1--1-(1)---3--(3)----||
|--------------------|-0--0-(0)---2--(2)----||
|--------------------|----2-(2)---0--(0)----||
|-0----------------2-|-3--------------------||
|--------------------|----------------------||


 Theme #1 - Remake #2
  E
  Gtr II
  E.  S  +S  S  E  +E.              S     S  S  S  S
  |   |   |  |  |   |               |     |  |  |  |
  /   /   /  /  /   /               /     /  /  /  /

  Gtr IV
  Q.            E  +H
|---------------0--(0)-------------------------------|
|---------------0--(0)-------------------------------|
|---------------9--(9)-------------------------------|
|---------------9--(9)-------------------------------|
|-7-------------7--(7)-------------------------------|
|-0--------------------------------------------------|
|
| Gtr I
| E.  S  +E     E  +S   T  T  T  T  T  T  S  S  S  S
|--------------12-(12)-------------12h16-19-17-16-14-|
|-9--12-(12)----9--(9)----------12-------17----------|
|-9---9--(9)----9--(9)-------13----------------------|
|-9---9--(9)--------------14-------------------------|
|----------------------14----------------------------|
|-0--------------------------------------------------|


  Bm                            E            Am
   Q.          E  +E. S E S S   E. S  E  S S  E.  S   E   S S
   |           |   |  | | | |   |  |  |  | |  |   |   |   | |
   /           /   /  / / / /   /  /  /  / /  /   /   /   / /

   Q.          E  +H            H             H
|--------------0--(0)---------|--------------------------------|
|--------------0--(0)---------|--------------------------------|
|--------------4--(4)---------|--------------------------------|
|--4-----------4--(4)---------|---------------2----------------|
|--2--------------------------|-2-------------0----------------|
|-----------------------------|-0------------------------------|
|
|  E.  S  +E   E  +H            E. S +E  E    E.  S  +E   E
|-----19-(19)-22-(22)---------|-4--5-(5)-7----8--10-(10)-12----|
|-19--19-(19)-19-(19)---------|-5--7-(7)-9---10--12-(12)-13----|
|-19--19-(19)-19-(19)---------|-4-------------9----------------|
|-21--------------------------|--------------------------------|
|-----------------------------|---------------0----------------|
|--7--------------------------|-0------------------------------|


  D                           E
  Q     S  S E +E S S E S S   E.  S  +E   E   S   S     S     S     E     S  S
  |     |  | |  | | | | | |   |   |   |   |   |   |     |     |     |     |  |
  /     /  / /  / / / / / /   /   /   /   /   /   /     /     /     /     /  /

  W                           Q.          E  +H
|---------------------------|-------------0--(0)-------------------------------|
|-3-------------------------|-------------0--(0)-------------------------------|
|-2-------------------------|-------------9--(9)-------------------------------|
|-0-------------------------|-------------9--(9)-------------------------------|
|-0-------------------------|-7-----------7--(7)-------------------------------|
|---------------------------|-0------------------------------------------------|
|
| E. S +E    E  H             E.  S  +E   E  +S   T  T  T  T  T  T  S  S  S  S
|-5--3-(3)---2--------------|------------12-(12)-------------12h16-19-17-16-14-|
|-7--5-(5)---3--3-----------|-9--12-(12)--9--(9)----------12-------17----------|
|-7-------------2-----------|-9---9--(9)--9--(9)-------13----------------------|
|-0-------------0-----------|-9---9--(9)------------14-------------------------|
|---------------------------|--------------------14----------------------------|
|---------------------------|-0------------------------------------------------|


  Bm
   E.  S  +S  S  E  +S   S  S  S  E     S  S
   |   |   |  |  |   |   |  |  |  |     |  |
   /   /   /  /  /   /   /  /  /  /     /  /

   Q.            E  +H
|----------------0--(0)----------------------|
|----------------0--(0)----------------------|
|----------------4--(4)----------------------|
|--4-------------4--(4)----------------------|
|--2-----------------------------------------|
|--------------------------------------------|
|
|  E.  S  +E     E  +S   S  S  S  S  S  S  S
|-----19-(19)---22-(22)-22-21-19-17-16-14-12-|
|-19--19-(19)---19-(19)-19-17-15-14-12-10--9-|
|-19--19-(19)---19-(19)----------------------|
|-21-----------------------------------------|
|--------------------------------------------|
|--7-----------------------------------------|


  E            Am                   D
  E. S  E  S S  E  S  S   S  S  E   E  S S  S  S E  E  S S  S  S  S S
  |  |  |  | |  |  |  |   |  |  |   |  | |  |  | |  |  | |  |  |  | |
  /  /  /  / /  /  /  /   /  /  /   /  / /  /  / /  /  / /  /  /  / /

  H             H                   H              +E  E   +S  E.
|---------------------------------|--------------------3---(3)-2-------||
|---------------------------------|-3--------------(3)-3---(3)-3-------||
|---------------------------------|-2--------------(2)-2---(2)-2-------||
|---------------2-----------------|-0--------------(0)-----------------||
|-2-------------0-----------------|-0--------------(0)-----------------||
|-0-------------------------------|------------------------------------||
|
| E. S +E  E    E.    S  +E     E   E.   S +E    E  H
|-4--5-(5)-7----8----10-(10)---12-|-5----3-(3)---2---------------------||
|-5--7-(7)-9---10----12-(12)---13-|-7----5-(5)---3--3------------------||
|-4-------------9-----------------|-7---------------2------------------||
|---------------------------------|-0---------------0------------------||
|---------------0-----------------|------------------------------------||
|-0-------------------------------|------------------------------------||


 Theme #3 - Revisited
  N.C.
                              5/16
  Gtr IV
  PM         ~~~~~~       ~~        ~
  S E  S S e S +E   E +S  E.   e  S E
|----------------------------|--------|
|----------------------------|--------|
|----------------------------|--------|
|----------------------------|--------|
|---7--8---5-7-(7)--------5--|-7--8-7-|
|-0----------------/7-(7)----|--------|
|
| Gtr V
| S E  S S e S +E   E +S  E.   e  S E
|----------------------------|--------|
|----------------------------|--------|
|----------------------------|--------|
|---9-10---7-9-(9)--------7--|-9-10-9-|
|-------------------9-(9)----|--------|
|-7--------------------------|--------|


 4/4                          7/16
  PM         ~~~~~~       ~~
  S E  S S e S +E   E +S  E.   S S S S S S S
|----------------------------|---------------|
|----------------------------|---------------|
|----------------------------|---------------|
|----------------------------|---------------|
|---7--8---5-7-(7)--------5--|-------------5-|
|-0----------------/7-(7)----|-5-4-5-7-5-4---|
|
| S E  S S e S +E   E +S  E.   S S S S S S S
|----------------------------|---------------|
|----------------------------|---------------|
|----------------------------|---------------|
|---9-10---7-9-(9)--------7--|-------------7-|
|-------------------9-(9)----|-7-6-7-9-7-6---|
|-7--------------------------|---------------|


 4/4                            5/16
  PM          ~~~~~~~       ~~        ~
  S E  S S e  S  +E   E +S  E.   e  S E
|------------------------------|--------|
|------------------------------|--------|
|------------------------------|--------|
|------------------------------|--------|
|---7--8---5-[7]-(7)--------5--|-7--8-7-|
|-0------------------/7-(7)----|--------|
|
| S E  S S e  S  +E   E +S  E.   e  S E
|------------------------------|--------|
|------------------------------|--------|
|------------------------------|--------|
|---9-10---7--9--(9)--------7--|-9-10-9-|
|---------------------9-(9)----|--------|
|-7----------------------------|--------|


 4/4                          6/8
  PM         ~~~~~~       ~~
  S E  S S e S +E   E +S  E.   S e S E S e S E
|----------------------------|-----------------||
|----------------------------|-----------------||
|----------------------------|-----------------||
|----------------------------|-----------------||
|---7--8---5-7-(7)--------5--|-----------3-5-7-||
|-0----------------/7-(7)----|---4-5-7---------||
|
| S E  S S e S +E   E +S  E.   S e S E S e S E
|----------------------------|-----------------||
|----------------------------|-----------------||
|----------------------------|-----------------||
|---9-10---7-9-(9)--------7--|-----------5-7-9-||
|-------------------9-(9)----|---6-7-9---------||
|-7--------------------------|-----------------||


 Guitar Solo - Pt. I
  Am                               E7
  Gtr IV
                   ~                                               ~~~
             |-3-|
  S  S  S S  S S S Q   +T   T  S     S  S  S  S      +S   +S       Q    E
|--------------------------------|----------------------------------------|
|--------------------------------|----------------------------------------|
|---------5--8p7p5---------------|-----12-14-13b14==(13)r(13)b14==13r-----|
|---(7)-7---------------------10-|-/14------------------------------------|
|------------------9---(9)s12----|----------------------------------------|
|--------------------------------|----------------------------------------|
|
| Gtr I
| S  e    E.       E E  E            S  e     E.                   E  E E
|----0----0----------------------|----------------------------------------|
|----1----1----------------------|------3-----3---------------------------|
|----2----2----------------------|------1-----1---------------------------|
|--------------------------------|------2-----2--------------------1--0---|
|-0---------------------2--------|--------------------------------------3-|
|------------------2-1-----------|---0------------------------------------|


  Am
          |---3---|
  S S    +S  S    S S S     S S S S S S
|---------------------------------5-8p5-|
|---7pb8r(7)p5------5-----------6-------|
|-----------------7---5b5.5---5---------|
|---------------------------7-----------|
|---------------------------------------|
|---------------------------------------|
|
| S e          E.           E   E   E
|---0----------0------------------------|
|---1----------1------------------------|
|---2----------2------------------------|
|---------------------------------------|
|-0---------------------------------2---|
|---------------------------2---1-------|


  E7                      Am
  S T T  T T S  S  S      +S  +S      +S  +S   S  S
|-7-8p7---------------------------------------------|
|-------10p9-6--9--------------------------------10-|
|-----------------[9]b10==(9)r(9)b10==(9)r(9)-/9----|
|---------------------------------------------------|
|---------------------------------------------------|
|---------------------------------------------------|
|
| S e        E.            q                   E
|--------------------------0------------------------|
|---3--------3-------------1------------------------|
|---1--------1-------------2------------------------|
|---2--------2--------------------------------------|
|--------------------------0------------------------|
|-0-------------------------------------------------|


                                              E7
                                                                           ~~
   S      +S   +S   S  S  S  S  S S  S  S S    E        +S    s   S     S  Q    +E
|---------------------------------8-11-10p8-|----------------10----------------------|
|-12b13==(12)r(12)-10----------10-----------|-12b13====(12)r-----12b13-12-10---(10)\-|
|----------------------9-10-11--------------|----------------------------------------|
|-------------------------------------------|----------------------------------------|
|-------------------------------------------|----------------------------------------|
|-------------------------------------------|----------------------------------------|
|
|  S       e        E.       E    E     E      S     e        E.           E E   E
|----------0--------0-----------------------|----------------------------------------|
|----------1--------1-----------------------|--------3--------3----------------------|
|----------2--------2-----------------------|--------1--------1----------------------|
|-------------------------------------------|--------2--------2------------1-0-------|
|--0------------------------------------2---|------------------------------------3---|
|----------------------------2----1---------|--0-------------------------------------|


  Am
  S S S S  S  S  S S S S S S
|----------8-12-13p8-8-------|
|-------9--------------9-8---|
|---8s9--------------------9-|
|----------------------------|
|----------------------------|
|----------------------------|
|
| S e   E.       E   E   E
|---0---0--------------------|
|---1---1--------------------|
|---2---2--------------------|
|----------------------------|
|-0----------------------2---|
|----------------2---1-------|


  E7                  Am         N.C.
                      ~~
  S T T S  S  S S     Q   +E     S S S S S S S S S S S S
|------------------------------|--------------------------||
|-7h8p7------------------------|--------------------------||
|-------9-\8--7-5b5.5----------|-------------2---4-7-4-5--||
|---------------------7---(7)\-|-------2---2---6----------||
|------------------------------|-----2---3----------------||
|------------------------------|---4----------------------||
|
| S e      E.         Q.         S S S S S S S S S S S S
|---------------------0--------|--------------------------||
|---3------3----------1--------|--------------------------||
|---1------1----------2--------|-------------2---4-7-4-5--||
|---2------2-------------------|-------2---2---6----------||
|---------------------0--------|-----2---3----------------||
|-0----------------------------|---4----------------------||


 Guitar Solo - Pt. II
  Am
                           ~~~
  S  a      +E.      s  S  E.     S   S  S
|---15b17==(15)r---------------------------|
|-------------------15-13-15----(13)-13----|
|---------------------------------------14-|
|-7----------------------------------------|
|------------------------------------------|
|------------------------------------------|
|
| S          e   E.        E  E       E
|------------0---0-------------------------|
|------------1---1-------------------------|
|------------2---2-------------------------|
|------------------------------------------|
|-0-----------------------------------2----|
|--------------------------2--1------------|


  E7                                          Am
                                                                          ~~
   S  S  S       S   S  S  S  S  S  S  S  S    S  S  S  S  S  S  S  S     E  E
|-------------------------------------------|----------------------------------|
|-13-15-15b16.5-13--15-13-------------------|----------------------------------|
|-------------------------14----12h13-14-12-|-13----12-------------------------|
|----------------------------14-------------|----14----14s12-10-12-12b13r10----|
|-------------------------------------------|-------------------------------12-|
|-------------------------------------------|----------------------------------|
|
|  S  e          E.        E     E     E       S  e     E.       E        E  E
|-------------------------------------------|-----0-----0----------------------|
|-----3----------3--------------------------|-----1-----1----------------------|
|-----1----------1--------------------------|-----2-----2----------------------|
|-----2----------2---------1-----0----------|----------------------------------|
|--------------------------------------3----|--0-----------------------------2-|
|--0----------------------------------------|--------------------2--------1----|


  E7                Am
  S  T  T  S  S   e   S  S  S  S  S  S
|--------------------------------12-15b17==|
|-----------------------------13-----------|
|----------------12-----12-14--------------|
|---------10-----12-/14--------------------|
|---10-12----12----------------------------|
|------------------------------------------|
|
| S  e        E.      q           E
|---------------------0--------------------|
|----3--------3-------1--------------------|
|----1--------1-------2--------------------|
|----2--------2----------------------------|
|---------------------0--------------------|
|-0----------------------------------------|


                                        E7
           ~~~~~                ~~~~~
   +E     +Q       a      +E   +Q        S  S  S  S   S  S  S  S  S  S  S  S
|-(15)---(15)r----17b19==(17)-(17)r---|-20-16-19-16---------------------------|
|-------------------------------------|--------------17-----------------------|
|-------------------------------------|-----------------17----------------17--|
|-------------------------------------|--------------------18----17-18-19-----|
|-------------------------------------|-----------------------19--------------|
|-------------------------------------|---------------------------------------|
|
|   S  e       E.          E    E   E    S  e     E.        E     E     E
|------0-------0----------------------|---------------------------------------|
|------1-------1----------------------|-----3-----3---------------------------|
|------2-------2----------------------|-----1-----1---------------------------|
|-------------------------------------|-----2-----2---------1-----0-----------|
|---0-------------------------------2-|---------------------------------3-----|
|--------------------------2----1-----|--0------------------------------------|


  Am
   S  S  S      +T   +T       +S       +S    S  S  S  S  S  S
|-------------------------------------------------------19-20-|
|-------------------------------------------19-20-21-22-------|
|-19-17-19b21==(19)r(19)b21==(19)b23==(19)r-------------------|
|-------------------------------------------------------------|
|-------------------------------------------------------------|
|-------------------------------------------------------------|
|
|  S  e          E.                          E     E     E
|-----0----------0--------------------------------------------|
|-----1----------1--------------------------------------------|
|-----2----------2--------------------------------------------|
|-------------------------------------------------------------|
|--0-----------------------------------------------------2----|
|--------------------------------------------2-----1----------|


  E7                           Am
                                ~~~
   S  S  S  S.     +T   +T   T  Q    +E
|-21-22-20-22b24==(22)r(22)p20------------|
|------------------------------22---(22)\-|
|-----------------------------------------|
|-----------------------------------------|
|-----------------------------------------|
|-----------------------------------------|
|
|  S  e     E.                  Q.
|-------------------------------0---------|
|-----3-----3-------------------1---------|
|-----1-----1-------------------2---------|
|-----2-----2-----------------------------|
|-------------------------------0---------|
|--0--------------------------------------|


  N.C.
 7/8                         13/16
                                                    |-3-| |-3-|
  S S S S S S S S S S S S e   T T S S S S T T S S S S S S S S S
|---------------------------|-----------------------------------||
|---------------------------|-----------------------------------||
|-----------------4-7-4-5---|-----------------------------------||
|-------2---2-7-6---------7-|-6-7-9-----7-6-0-------------------||
|-----2---3-----------------|-------8-7---------8-7-----------6-||
|---4-----------------------|-----------------8-----7-5-4-0-5---||
|
|                                                   |-3-| |-3-|
| S S S S S S S S S S S S e   T T S S S S T T S S S S S S S S S
|---------------------------|-----------------------------------||
|---------------------------|-----------------------------------||
|-----------------4-7-4-5---|-----------------------------------||
|-------2---2-7-6---------7-|-6-7-9-----7-6-0-------------------||
|-----2---3-----------------|-------8-7---------8-7-----------6-||
|---4-----------------------|-----------------8-----7-5-4-0-5---||


 Piano Solo - Pt. I
  Dm
 6/8
  Gtr IV
  Q          +E       Q.
|---------------------------------------------------------|
|---------------------------------------------------------|
|---------------------------------------------------------|
|---------------------------------------------------------|
|-5----------(5)\-----------------------------------------|
|---------------------------------------------------------|
|
| Gtr I
| S  S  S  S  S    S  T   T  T  T  T  T  T  T  T  T  T  T
|---------15-16---17-----20----20----20----20----20----20-|
|---15-18-------------------------------------------------|
|---------12-13---14-17-----17----17----17----17----17----|
|---12-15-------------------------------------------------|
|---------------------------------------------------------|
|---------------------------------------------------------|


  A7
   W
|----------------------------------------------------------------------|
|----------------------------------------------------------------------|
|----------------------------------------------------------------------|
|----------------------------------------------------------------------|
|----------------------------------------------------------------------|
|----------------------------------------------------------------------|
|
|  S  T  T  T  T  T  T  T  T  T  T  T  T  T  T  T  T  T  T  T  T  T  T
|----20p19p18p17----17----17-16p15-------15p13-------13p10-------------|
|----------------20----18----------18p15-------15p13-------13p10-------|
|-17-------------------------------------------------------------12p10-|
|----------------------------------------------------------------------|
|----------------------------------------------------------------------|
|----------------------------------------------------------------------|


  Dm
  Gtr I
   E  S  E  S T  T  S  T  T  T  T  S  S
|---------------------------------------|
|-------------9h10h13-------------------|
|----10-12-10---------12h13p12p10-12-10-|
|-12------------------------------------|
|---------------------------------------|
|---------------------------------------|


  A7                              Dm
  S  T  T  T  T  T  T  T  T  T  T  T  T  T  T  T  T  T  T  E
|------------------20h22p20-------------------------27h29p27--|
|---------------20----------20-------------------27-----------|
|---------17h19----------------19p17-------24h26--------------|
|------17-------------------------------24--------------------|
|---17-------------------------------24-----------------------|
|-------------------------------------------------------------|


  S  S  S  S  S  S  S  T  T  T  T  T  T  T  T  T  T
|---27-24-26-25-22-24-23p22p20----22p20-------------|
|------------------------------22-------22p21p20----|
|------------------------------------------------22-|
|---------------------------------------------------|
|---------------------------------------------------|
|---------------------------------------------------|


  A7                              Dm
   E  S  S  S  S  S  S  E  S  S   S  S  S  S  S  S  S  S  S  E  S
|----20-17----------------------|------------------20-24-27-25-22--|
|-20-------18-20----18----------|---15-18-20-21-22-----------------|
|----------------19----19-17-19-|------------------17-21-24-22-19--|
|-------------------------------|---12-15-17-18-19-----------------|
|-------------------------------|----------------------------------|
|-------------------------------|----------------------------------|


  A7
 3/8
  S  T  T  T  T  T  T  T  T  T  T
|---------------------17-17-17-20-|
|---15-15-15-18-18-18-------------|
|---------------------------------|
|---------------------------------|
|---------------------------------|
|---------------------------------|
|
| Gtr IV
| W
|---------------------------------|
|---------------------------------|
|---------------------------------|
|---------------------------------|
|---------------------------------|
|---------------------------------|


  N.C.
 6/8                   10/8
   S e e S S E    S e   S e e e e S S e S E    S S E
|-22------------------|-------------------------------||
|---------------------|-------------------------------||
|---------------------|-----------4---7-4-5tr7-4------||
|--------7---6tr7-----|-------7-6----------------7----||
|----5-8----------8-7-|---5-8-------------------------||
|---------------------|-------------------------------||
|
|  S e e S S E    S e   S e e e e S S e S E    S S E
|---------------------|-------------------------------||
|---------------------|-------------------------------||
|---------------------|-----------4---7-4-5tr7-4------||
|--------7---6tr7-----|-------7-6----------------7----||
|----5-8----------8-7-|-x-5-8-------------------------||
|---------------------|-------------------------------||


 Piano Solo - Pt. II
  Dm                          A7
 6/8
  Q  S  S  S  S  S  S  S  S    E  S  S  S  S  S  T  T  T  T  T  T  T  T  T  T
|---------------17----16----|-15----22-24-25-27----28----28----28----28----28-|
|---------15-18----18----17-|----18-------------------------------------------|
|------14-------------------|-------19-21-22-24-25----25----25----25----25----|
|---------------------------|-------------------------------------------------|
|---------------------------|-------------------------------------------------|
|---------------------------|-------------------------------------------------|


  Dm
   E  S  E  S S  T  T  T  T  T  T  T  T  T  T
|----29-29-29---22p20----22p20----16p15-13-16p|
|----27-30-27---20----22-20----22-15-------15-|
|-26------------------------------------------|
|---------------------------------------------|
|---------------------------------------------|
|---------------------------------------------|


  A7                                  Dm
   T  T  T  T  T  T  T  T  T  T  T  T  T  T  T  T  T  T  T  T  T  T  T  T
|-15-13-15p13----15p13-----------------------------------------------------|
|-------13----15-13----15-13p10-15p13-15p13-------------13-------13--------|
|-------------------------------------------14p13p12p10-12p10----12p10-----|
|-------------------------------------------------------------12-------12--|
|--------------------------------------------------------------------------|
|--------------------------------------------------------------------------|


   E  S  S  a  E  E  S  e  T  T
|-------------------------------|
|-13-13-------13-13----13-------|
|-10-12----10h12-12-10-12-------|
|-------12-------------------17-|
|-------------------------17----|
|-------------------------------|


  A7
                                                   |--3--|  |--3--|  |--3--|  |--3--|
   T  T  T  T  T  T  T  T  T  T  T  T  T  T  T  T  T  T  T  T  T  T  T  T  T  T  T  T
|----------20h22p20-------23p21-------24p22-------25p23----26p24----27p25----28p26----|
|-------20----------20----------21----------22----------23-------24-------25-------26-|
|-17h19----------------19----------20----------21-------------------------------------|
|-------------------------------------------------------------------------------------|
|-------------------------------------------------------------------------------------|
|-------------------------------------------------------------------------------------|


  Dm                                                   A7
                                                      3/8
                                             |--3--|
   Q  S  T  T  T  T  T  T  T  T  T  T  T  T  T  T  T    E  S  E  S
|-29----22p17-13p12p10-13p12p10----------------------|-------------|
|-------------------------------13p10-------10-------|-13-13----10-|
|-------------------------------------12p10----12p10-|-12-10-------|
|----------------------------------------------------|-------12-12-|
|----------------------------------------------------|-------------|
|----------------------------------------------------|-------------|


  N.C.
 6/8                  10/8                           6/8
  S e e S S E    S e   S e e e e S S e S E    S S E   E    S S E E    S S E
|--------------------|------------------------------|-----------------------||
|--------------------|------------------------------|-----------------------||
|--------------------|-----------4---7-4-5tr7-4-----|-----------------------||
|-------7---6tr7-----|-------7-6----------------7---|-6tr7------------------||
|---5-8----------8-7-|---5-8------------------------|------8-7---2tr3-------||
|--------------------|------------------------------|-----------------5-4---||
|
| Gtr IV
| S e e S S E    S e   S e e e e S S e S E    S S E   E    S S E E    S S E
|--------------------|------------------------------|-----------------------||
|--------------------|------------------------------|-----------------------||
|--------------------|-----------4---7-4-5tr7-4-----|-----------------------||
|-------7---6tr7-----|-------7-6----------------7---|-6tr7------------------||
|---5-8----------8-7-|-x-5-8------------------------|------8-7---2tr3-------||
|--------------------|------------------------------|-----------------5-4---||


 Theme #4a - Revisited
  Bsus4       Asus2            C5             D
  Gtr IV
  S S S E.     S  S S  E.       S S  S  E.     S S  S  E.
|----------------------------|----------------------------|
|-------0--------------0-----|-------3--------------3-----|
|-----4-------------4--------|----0-----0--------2-----2--|
|---2-------------2----------|-----------------0----------|
|-2------------0-------------|--3-------------------------|
|----------------------------|----------------------------|
|
| Gtr V
| S e   E   S  E.      E   S    E    S  E   S  E    S  E.
|-------------------------12-|-10-------------------------|
|---9---9--10-12------12-----|------12-----12-10----------|
|----------------------------|---------12----------11-----|
|----------------------------|------------------------12--|
|----------------------------|----------------------------|
|----------------------------|----------------------------|


  Bsus4       Asus2            (C)            D5
                              5/8
  S S S E.     S  S S  E.       E  Q            E  E
|----------------------------|-----------------------|
|-------0--------------0-----|------------------3--3-|
|-----4-------------4--------|------------------2--2-|
|---2-------------2----------|------------------0--0-|
|-2------------0-------------|--3--------------------|
|----------------------------|-----------------------|
|
| S e   E   S  E.      E   S    E  S  S  S  S  +Q
|-------------------------12-|-10--------------------|
|---9---9--10-12------12-----|----12----12-10-(10)---|
|----------------------------|-------12--------------|
|----------------------------|-----------------------|
|----------------------------|-----------------------|
|----------------------------|-----------------------|


  Bsus4       Asus2            G5             N.C.
 6/8
  S S S E.     S  S S  E.       S S  S  E.     E  E  E
|----------------------------|-------------------------|
|-------0--------------0-----|-------------------------|
|-----4-------------4--------|-------0-----------------|
|---2-------------2----------|----0-----0--------------|
|-2------------0-------------|--------------------0-/5-|
|----------------------------|--3--------------2-------|
|
| S e   E   S  E.      E   S    E    S  E   S  Q.
|----------------------------|-15---14-----14----------|
|---9---9--10-12------12--17-|---------17-----15-------|
|----------------------------|-------------------------|
|----------------------------|-------------------------|
|----------------------------|-------------------------|
|----------------------------|-------------------------|


  F/A              N.C.
   S S  S  S  S  S   E  E E
|----------------------------||
|----------1-----------------||
|-------2-----2--------------||
|----3-----------3--------2--||
|--0--------------------3----||
|--------------------3-------||
|
|  E    S  S  S  S  +Q.
|----------------------------||
|-13---12-10-12--------------||
|---------------12-(12)------||
|----------------------------||
|----------------------------||
|----------------------------||


 Theme #4b - Revisited
  A               E/B C           Dadd9  A               E/B (C)          D5
 3/4                                                        5/8
  PM                                     PM                               ~
  S E S S e S +E  E   S E S S e S +Q     S E S S e S +E  E    S S S S S S Q
|-------------------|------------------|-------------------|------------------|
|---2-3---5-2-(2)-0-|---1-3---5-3-(3)--|---2-3---5-2-(2)-0-|------------------|
|---2-2---2-2-(2)-1-|---0-0---0-2-(2)--|---2-2---2-2-(2)-1-|-/5-4-------4-----|
|-------------------|-----------0-(0)--|-------------------|------7-5-7---7---|
|-0-----------------|------------------|-0-----------------|------------------|
|-------------------|------------------|-------------------|------------------|
|
| S E S S e S +E  E   S E S S e S +Q     S E S S e S +E  E    S S S S S S Q
|-------------------|------------------|-------------------|------------------|
|---2-3---5-2-(2)-0-|---1-3---5-3-(3)--|---2-3---5-2-(2)-0-|------------------|
|---2-2---2-2-(2)-1-|---0-0---0-2-(2)--|---2-2---2-2-(2)-1-|--
comments
We did not receive enough feedback on this tab! Please rate:
1 2 3 4 5
I want to post or [tab]
guest
You may want to rate the tab now too:
select rating
Please do not post tabs as comments. Select "correction" instead!