Oops, an error
Loading. Please wait.

Freedon Of Speech Tab

997 views 12 this week
1 commentread comment
1 2 3 4 5
please rate
add to favorites launch autoscroll
font size
0
reset
Autoscroll
+/-
esc
set tempo
stop
Contributor
Difficulty
advanced
WARNING: You are trying to view
                                    content from Ultimate-Guitar.com
                                    in an unauthorized application,
                                    which is prohibited.

                                    Please use an official Ultimate
                                    Guitar Tabs application for iPhone,
                                    iPad or Android to access legitimate
                                    chords, guitar, bass, and drum tabs
                                    from Ultimate-Guitar.com database.

                                    Type "ultimate guitar tabs" in Apple
                                    App Store's or Android Market's
                                    search to find the application.
Gtr I (E A D G B E) - 'Clean Electric'
Gtr II (E A D G B E) - 'Distorted Guitar 1'
Gtr III (E A D G B E) - 'Distorted Guitar 2'
Gtr IV (E A D G B E) - 'Keyboards'
Gtr V (E A D G B E) - 'Acoustic Guitar'


 Intro
  Slowly/Moderately Q=74
                Bmadd11                  Gmaj13
 4/4
  Gtr I
  Wx16          E S S +E  E +E  E +Q     E S S +E  E +E  E +Q
|-------------|-----------0-(0)--------|-----------0-(0)--------|
|-------------|-----------------3-(3)--|-----------------3-(3)--|
|-------------|-----4-(4)--------------|-----4-(4)--------------|
|-------------|---4--------------------|---4--------------------|
|-------------|-2----------------------|------------------------|
|-------------|------------------------|-3----------------------|


  C#m7                 Em6add9   F#add11
  S E S +E  E +H        Q.   S S E S S E E
|--------------------|-!2---------------------|
|-5s7-5-(5)----------|-!2--------0---0--------|
|-4s6-4-(4)----------|-!0--------------3------|
|--------------------|-------2s4---4-----4----|
|-----------4-(4)----|------------------------|
|--------------------|------------------------|


  Bm                       Gmaj13
  E S S +E  E +E  E +Q     E S S +E  E +E  E +Q
|-----------2-(2)--------|-----------0-(0)--------|
|-----------------3-(3)--|-----------------3-(3)--|
|-----4-(4)--------------|-----4-(4)--------------|
|---4--------------------|---4--------------------|
|-2----------------------|------------------------|
|------------------------|-3----------------------|


  Emadd9               G5/D    Csus2
                      2/4     4/4
  S S S S E E +H       Q  Q    W
|-0------------------|----3--|------||
|---0----------------|-3-----|-3----||
|-----0--------------|-0-----|-0----||
|-------4------------|-0-----|------||
|---------2----------|-------|-3----||
|-----------0-(0)----|-------|------||


 1st Guitar Solo
  Dadd11                     F#m7b9
   E. S +E   E +H            E. S +E     E +H
|--------------------------|-------------0-(0)---------|
|------------3-(3)---------|---------------------------|
|-----0-(0)----------------|----0-(0)------------------|
|--4-----------------------|-4-------------------------|
|--5-----------------------|---------------------------|
|--------------------------|-2-------------------------|
|
| Gtr II
|            ~~~~~~                   PM ~~~~~~~~~
|  E. S +E   E +Q   +E   E   Q     S  S  E +Q   E +E
|--------------------------|---------------------------|
|--------------------------|---------------------------|
|-----------/7-(7)--(7)\---|------------/9-(9)--7-(7)\-|
|-/4--5-(5)----------------|----------7----------------|
|--------------------------|---------------------------|
|--------------------------|---------------------------|


  Gmaj7                         Em6add9
   E. S +E    E  +H             E. S +E   E      +E         E           +Q
|-------------2--(2)----------|----2-(2)-------------------------------------|
|-----------------------------|-----------2------(2)--------3-----------(3)--|
|-----0-(0)-------------------|-0--------------------------------------------|
|--4--------------------------|----------------------------------------------|
|-----------------------------|----------------------------------------------|
|--3--------------------------|-0--------------------------------------------|
|
|             ~~~~~~~                                                    ~~~~
|  E. S +E    E  +Q    +E   E   Q.        E      +S   +S   +S      +S    Q
|-----------------------------|----------------------------------------------|
|-----------------------------|----------17b19==(17)-(17)r(17)b19r(17)-------|
|-----------/11-(11)--(11)\---|----------------------------------------------|
|-/4--5-(5)-------------------|----------------------------------------[12]--|
|-----------------------------|----------------------------------------------|
|-----------------------------|----------------------------------------------|


  Dadd11                     F#m7b9
   E. S +E     E +H            E. S  +E   E +H
|--------------------------|--------------0-(0)------------------------|
|--------------3-(3)-------|-------------------------------------------|
|-----0-(0)----------------|------0--(0)-------------------------------|
|--4-----------------------|---4---------------------------------------|
|--5-----------------------|-------------------------------------------|
|--------------------------|---2---------------------------------------|
|
|           PM ~~~~~~~~~~~~~~~~~~~
|  E. S +S  S  E +Q     Q     +Q     +E   E  E   E      +S   +S   S  S
|--------------------------|-------------------------------------------|
|--------------------------|-------------------------------------------|
|-------------/7-(7)--/14--|-(14)---(14)\-------14b16==(14)r(14)-12p11-|
|-/4--5-(5)-5--------------|-------------------------------------------|
|--------------------------|-------------------------------------------|
|--------------------------|-------------------------------------------|


  Emadd9                      Gmaj9                   Asus2
   E.  S  +E    E  +H          H                       H
|---------------3--(3)------|-----------------------------------------------------|
|---------------------------|--3--------------------------------------------------|
|------0--(0)---------------|--2-----------------------2--------------------------|
|--4------------------------|--0-----------------------2--------------------------|
|---------------------------|--------------------------0--------------------------|
|--0------------------------|--3--------------------------------------------------|
|
|               ~~~~~~~~~~~
|  E.  S  +E    E  +Q    Q     S  S  S S   e T T S    +S  T T E +S  T  T  S  S
|---------------------------|-----------------------------------------------------|
|-------------/17-(17)--15--|--------------------------------------------15-------|
|-11--12-(12)---------------|-16p14-\9-7-/11-7h9-9b11r(9)-7---------9s14----14----|
|---------------------------|-------------------------------9-7-(7)---------------|
|---------------------------|-----------------------------------------------------|
|---------------------------|-----------------------------------------------------|


  D5
  Gtr III
   W
|-----------------------------------------------|
|--3--------------------------------------------|
|--2--------------------------------------------|
|--0--------------------------------------------|
|--0--------------------------------------------|
|-----------------------------------------------|
|
|        ~~~~~~~~~~~~~~~~~~                  ~~~~
|  E     E      +Q    +E    e   S      +S   +E
|-----------------------------------------------|
|-17b19-17b19==(17)--(17)r-----15b17==(15)r(15)-|
|-----------------------------------------------|
|--------------------------(0)------------------|
|-----------------------------------------------|
|-----------------------------------------------|


  (F#5)                                                        G5
    ~~~~~~~~~~~~~~~~~~~~~~~~~~~~~~~~
    Q.                        E +H                              Q.                 E      +H
|------------------------------------------------------------|---------------------3------(3)----------------|
|------------------------------------------------------------|---------------------3------(3)----------------|
|------------------------------------------------------------|--0------------------0------(0)----------------|
|------------------------------------------------------------|--0------------------0------(0)----------------|
|------------------------------------------------------------|-----------------------------------------------|
|---2-------------------------2-(2)--------------------------|--3-----------------(3)-----(3)----------------|
|
|                                                                                          \1/
|                           ~                   ~~~~~~~                                    ~~~~~
|   |-----6-----|     |-3-|            |--3--|
|  +S   T  T  T T T T T T T Q    T  T  T  T  T  E  +E   S  S    S   S  S  S  S  S  S   S  +Q      S  S  S  S
|-------------------------------------------14-17-(17)-15p14-|-14--15-16-17S14-------------------------------|
|-(15)-12p10--------------------------12-15------------------|-----------------15-----17-(17)---\15-14-12----|
|------------10s9-7---7h9---7---11S14------------------------|--------------------14----------------------14-|
|-------------------9-----9----------------------------------|-----------------------------------------------|
|------------------------------------------------------------|-----------------------------------------------|
|------------------------------------------------------------|-----------------------------------------------|


  E5                                    D5
    Q.           E   +H                  Q.           E   +H
|-------------------------------------|-------------------------------------|
|----------------5---(5)--------------|---------------3---(3)---------------|
|----------------4---(4)--------------|---------------2---(2)---------------|
|---2------------2---(2)--------------|--0------------0---(0)---------------|
|---2------------2---(2)--------------|--0-----------(0)--(0)---------------|
|---0-----------(0)--(0)--------------|-------------------------------------|
|
|   ~~~~  ~~~~~~   ~~~~~~   ~~~~~~       ~~~   ~~~~~~   ~~~~~~   ~~~~~~   ~~~
|   E   S S +E   S S +E   S S +E  S S    E   S S +E   S S +E   S S +E  s  S
|-------------------------------------|-------------------------------------|
|-\10--15s8-(8)-15s7-(7)-15s5-(5)-7---|-10--15s8-(8)-15s7-(7)-15s5-(5)-7----|
|-----------------------------------7-|----------------------------------/7-|
|-------------------------------------|-------------------------------------|
|-------------------------------------|-------------------------------------|
|-------------------------------------|-------------------------------------|


  (F#5)
   ~~~~~~~~~~~~~~~~~~~~~~~~~~~~~~~~~~~
   Q.              E              +H
|---------------------------------------------------------------|
|---------------------------------------------------------------|
|---------------------------------------------------------------|
|---------------------------------------------------------------|
|---------------------------------------------------------------|
|--2---------------2--------------(2)---------------------------|
|
|~~~~~PM|                                    ~~~~~~~~~~~~~~
| +E. T T S    T T T T    +T  +T  +T  T T T  E       +E    +E
|---------------------------------------------------------------|
|---------------------------------------------------------------|
|-(7)-----9b11r7----------------------------[9]b11==([9])r-(9)\-|
|-----9-7--------9-7--------------------------------------------|
|--------------------7b9==(7)-(7)r(7)-5-------------------------|
|---------------------------------------7-5---------------------|


  (E5)
  Q.              E     +H
|--------------------------------------|
|--------------------------------------|
|--------------------------------------|
|--------------------------------------|
|--------------------------------------|
|-0---------------0-----(0)------------|
|
|             ~~~~       ~~~         ~~~
| S   E.     +E   S   S  E.  S S S S S
|--------------------10S=9-------------|
|----10b12==(10)-10r--------10---------|
|------------------------------9s7-6-7-|
|--------------------------------------|
|--------------------------------------|
|--------------------------------------|


  (G5)                                       (A5)
   ~~~~~~~~~~~~~~~~~~~~~~~~~~~~~~~~~~~~~~~~~~~~~
   H                                          H
|----------------------------------------------------------------------------------------------|
|----------------------------------------------------------------------------------------------|
|----------------------------------------------------------------------------------------------|
|----------------------------------------------------------------------------------------------|
|----------------------------------------------------------------------------------------------|
|--3------------------------------------------5------------------------------------------------|
|
|~~~~~
|     |-3-|
| +S  T T T T  T  T T  T T  T  T  T  T  T  T  T  T  T  T  T  T  T  T  T  T  T  T  T  T  T  T
|-----------7S10-12-9------------10S14-15-12-------------14S17-19-15-------------17-21-19-17---|
|----------------------------------------------------------------------------------------------|
|-(7)-0-7-9-----------11-9-11-12-------------14-13-14-16-------------18-16-18-19---------------|
|----------------------------------------------------------------------------------------------|
|----------------------------------------------------------------------------------------------|
|----------------------------------------------------------------------------------------------|


  B5
   W
|---------------------------------------------------------------------------------------------|
|---------------------------------------------------------------------------------------------|
|--4------------------------------------------------------------------------------------------|
|--4------------------------------------------------------------------------------------------|
|--2------------------------------------------------------------------------------------------|
|---------------------------------------------------------------------------------------------|
|
|         ~~~~~~~~
|                                           |-----5-----|  |------6-------|  |------6-------|
|  E      E  +S   S  E      +T   +T   T  T  T  T  T  T  T  T  T  T  T  T  T  T  T  T  T  T  T
|-17b19==17-(17)r---17b19==(17)r(17)p14p13-14h17p14-13h17p13h17p13-14h17p14-13h17p13-14p13s10-|
|---------------------------------------------------------------------------------------------|
|-----------------x---------------------------------------------------------------------------|
|-----------------x---------------------------------------------------------------------------|
|---------------------------------------------------------------------------------------------|
|---------------------------------------------------------------------------------------------|


  G5
   Q.               E          +H
|------------------------------------------------------------------------|
|------------------------------------------------------------------------|
|------------------------------------------------------------------------|
|--5----------------5----------(5)---------------------------------------|
|--5----------------5----------(5)---------------------------------------|
|--3----------------3----------(3)---------------------------------------|
|
|         TP
|  S      E.  S  S  T  T  T  T  T   S     +S      +T   +S   S  S  S  S
|-12b14==12r-14-17-12-14----12-------------------------------------------|
|------------------------15----12--15b17r(15)b17r(15)-(15)\----3s17------|
|-------------------------------------------------------------------16---|
|------------------------------------------------------------------------|
|-----------------------------------------------------------2/-----------|
|------------------------------------------------------------------------|


  (C#5)
   ~~~~~~~~~~~~~~~~~~~~~~~~~~~~~~~~~
   Q.                   E      +H
|------------------------------------------------|
|------------------------------------------------|
|------------------------------------------------|
|------------------------------------------------|
|--4--------------------4------(4)---------------|
|------------------------------------------------|
|
|                               ~~~~~
|  Q       +S   +T   T  E      +Q     E      +E
|-14b15===(14)r(14)p12-15b17==(15)r--14b15==(14)r|
|------------------------------------------------|
|------------------------------------------------|
|------------------------------------------------|
|------------------------------------------------|
|------------------------------------------------|


  (E5)              (F#5)              B5
                     ~~~
    H                H                  Q.                     E       +H
|------------------------------------|------------------------------------------|
|------------------------------------|------------------------------------------|
|------------------------------------|--4----------------------4-------(4)------|
|------------------------------------|--4----------------------4-------(4)------|
|------------------------------------|--2----------------------2-------(2)------|
|---0----------------2---------------|------------------------------------------|
|
|             ~~~    ~~~    ~~                                          ~~~
|  +E   S  S  E.  S  E.  S  E  +S  S    S   S  s  S      +E   +S   +S   Q    Q
|-(14)-12----------------------------|------------------------------------------|
|---------15-14--15-12--14-11-(11)s3S|=12-----14-14b15==(14)-(14)r(14)-12-------|
|------------------------------------|-----11-------------------------------11--|
|------------------------------------|------------------------------------------|
|------------------------------------|------------------------------------------|
|------------------------------------|------------------------------------------|


  G5
    Q.    E    +H
|--------------------------------------|
|--------------------------------------|
|--------------------------------------|
|---5-----5----(5)---------------------|
|---5-----5----(5)---------------------|
|---3-----3----(3)---------------------|
|
|   ~~~~
|   Q.    S  S  E     +E    S  S  S  S
|--------------------------------------|
|--------------------------12S14-15-17-|
|-/14----12p11-12b14r(12)\-------------|
|--------------------------------------|
|--------------------------------------|
|--------------------------------------|


  E5
   Q.                           E          +H
|------------------------------------------------------------------------------------------|
|------------------------------------------------------------------------------------------|
|------------------------------------------------------------------------------------------|
|--2----------------------------2----------(2)---------------------------------------------|
|--2----------------------------2----------(2)---------------------------------------------|
|--0----------------------------0----------(0)---------------------------------------------|
|
|                 ~~~~~~~~~
|                                                                                  |-3--|
|  S   S  S      +S   +S   +S   T  T  T  T  T  T  T  T  T  T  T T  T T T  T T  X X T  T T
|-14--15-17b19==(17)-(17)r(17)-19-------17-------15-------14------12-----10-7--------------|
|---------------------------------15s14----14s12----12s10----10s8----8s7------10p7---------|
|----------------------------------------------------------------------------------9h11p9--|
|------------------------------------------------------------------------------------------|
|------------------------------------------------------------------------------------------|
|------------------------------------------------------------------------------------------|


  G5/D                C5
 2/4                 4/4
                                  >
  H                   W          +W
|-------------------|----------|--------||
|-3-----------------|----------|--------||
|-0-----------------|-5--------|-(5)----||
|-0-----------------|-5--------|-(5)----||
|-------------------|-3--------|-(3)----||
|-------------------|----------|--------||
|
|                                 >
|       ~~~~~~        ~~~~~~~~~~~~~~~
| T T T T +Q    S S   W          +W
|-------------------|----------|--------||
|-------------------|----------|--------||
|-7-----7-(7)--\5p4-|-5--------|-(5)----||
|---9-7-------------|----------|--------||
|-------------------|----------|--------||
|-------------------|----------|--------||


  Slightly Faster Q=85
               N.C.
  Gtr I
  Wx4          H.      Q    +H     H      +H     E Q.
|------------|------------|-------------|----------------|
|------------|------------|-------------|----------------|
|------------|-4-------3--|-(3)----6----|-(6)------------|
|------------|------------|-------------|----------4-----|
|------------|------------|-------------|----------------|
|------------|------------|-------------|----------------|


  H.      Q    S E. +Q   +Q.   E   +W           W
|------------|-------------------|------------|----------------------------|
|------------|-----------------5-|-(5)--------|----------------------------|
|------------|-------------------|------------|-4--------------------------|
|-5-------2--|-2s4--(4)--(4)-----|------------|----------------------------|
|------------|-------------------|------------|----------------------------|
|------------|-------------------|------------|----------------------------|
|
| Gtr II
|                                                          |-----6-----|
| W            W                    W           H    Q.    T T  T T  T T
|------------|-------------------|------------|----------------------------|
|------------|-------------------|------------|----------------------------|
|------------|-------------------|------------|----------------------------|
|------------|-------------------|------------|----------------------------|
|------------|-------------------|------------|-----------12p9h10p9h12p9h==|
|------------|-------------------|------------|----------------------------|


  +H                                                           H
|--------------------------------------------------------------------------------------------------------------------|
|--------------------------------------------------------------------------------------------------------------------|
|-(4)----------------------------------------------------------------------------------------------------------------|
|--------------------------------------------------------------5-----------------------------------------------------|
|--------------------------------------------------------------------------------------------------------------------|
|--------------------------------------------------------------------------------------------------------------------|
|
|  |-----6-----|  |-----6-----|  |-----6-----|  |-----6-----|  |-----6-----|  |-----6-----|  |-----6-----|   |-3-|
|  T T  T T  T T  T T  T T  T T  T T  T T  T T  T T  T T  T T  T T  T T  T T  T T  T T  T T  T T  T T  T T   s S S
|--------------------------------------------------------------------------------------------------------------------|
|--------------------------------------------------------------------------------------------------------------------|
|--------------------------------------------------------------------------------------------------------------------|
|--------------------------------------------------------------------------------------------------------------------|
|-10p9h12p9h10p9h12p9h10p9h12p9h10p9h12p9h10p9h12p9h10p9h12p9h10p9h12p9h10p9h12p9h10p9h12p9h10p9h12p9h10p9-------7h==|
|----------------------------------------------------------------------------------------------------------h12-------|


   Q.                                           E             +H
|---------------------------------------------------------------------------------------------------------------------------|
|---------------------------------------------------------------------------------------------------------------------------|
|---------------------------------------------------------------------------------------------------------------------------|
|--5--------------------------------------------4-------------(4)-----------------------------------------------------------|
|---------------------------------------------------------------------------------------------------------------------------|
|---------------------------------------------------------------------------------------------------------------------------|
|
|  |-----6-----|  |-----6-----|  |-----6-----|  |-----6-----|  |-----6-----|  |-----6-----|  |-----6-----|  |-----6-----|
|  T T  T T  T T  T T  T T  T T  T T  T T  T T  T T  T T  T T  T T  T T  T T  T T  T T  T T  T T  T T  T T  T T  T T  T T
|---------------------------------------------------------------------------------------------------------------------------|
|---------------------------------------------------------------------------------------------------------------------------|
|---------------------------------------------------------------------------------------------------------------------------|
|---------------------------------------------------------------------------------------------------------------------------|
|-12p7h10p7h12p7h10p7h12p9h10p9h12p9h10p9h12p7h10p7h12p7h10p7h12p9h10p9h12p7h10p7h12p7h10p7h12p9h10p9h12p9h10p9h12p7h10p7---|
|---------------------------------------------------------------------------------------------------------------------------|


   +Q.     E        +S  E. +Q          +Q.   E +H       +H.      S S S S
|------------------------------------|----------------|-------------------|
|------------------------------------|----------------|-------------------|
|----------3--------(3)-4--(4)-------|-(4)------------|-------------------|
|--(4)-------------------------------|-------4-(4)----|-(4)----------2h4--|
|------------------------------------|----------------|----------2h4------|
|------------------------------------|----------------|-------------------|
|
|   e  Q   T T  T T +Q     +E.  T  T    W                W
|------------------------------------|----------------|-------------------|
|------------------------------------|----------------|-------------------|
|------------------------------------|----------------|-------------------|
|-h11--------------------------------|----------------|-------------------|
|---------10p9h10p9-(9)----(9)-12p10p|==9-------------|-------------------|
|------------------------------------|----------------|-------------------|


  (F#11b9)
   E. S +E  E +Q   Q     +Q.   E  E. S +Q
|---------------------|---------------------|
|---------------------|---------------------|
|---------------------|--------------0-(0)--|
|-----------4-(4)--2--|--(2)------4---------|
|-----4-(4)-----------|--------4------------|
|--2------------------|---------------------|
|
| Gtr IV
|  W                     +Q.   E +H
|---------------------|---------------------|
|---------------------|---------------------|
|-11------------------|-(11)---9-(9)--------|
|---------------------|---------------------|
|--9------------------|--(9)---7-(7)--------|
|---------------------|---------------------|


  E. S +E  E +Q   Q     E. S +E  E E. S +Q
|--------------------|------------------------|
|--------------------|----------------0-(0)---|
|--------------------|-------------3----------|
|----------4-(4)--2--|-----------4------------|
|----4-(4)-----------|-----4-(4)--------------|
|-2------------------|--2---------------------|
|
| W                    +W
|--------------------|------------------------|
|--------------------|------------------------|
|-6------------------|-(6)--------------------|
|--------------------|------------------------|
|-4------------------|-(4)--------------------|
|--------------------|------------------------|


   E. S +E  E +Q   Q     +Q.   E  E. S +Q
|---------------------|---------------------|
|---------------------|---------------------|
|---------------------|--------------0-(0)--|
|-----------4-(4)--2--|--(2)------4---------|
|-----4-(4)-----------|--------4------------|
|--2------------------|---------------------|
|
|  W                     +Q.   E +H
|---------------------|---------------------|
|---------------------|---------------------|
|-11------------------|-(11)---9-(9)--------|
|---------------------|---------------------|
|--9------------------|--(9)---7-(7)--------|
|---------------------|---------------------|


  E. S +E  E +Q   Q    +E. S +E  E E. S +E  E
|--------------------|-------------------------|
|--------------------|----------------------0--|
|--------------------|----------------3-(3)----|
|----------4-(4)--2--|-(2)---------4-----------|
|----4-(4)-----------|-----------4-------------|
|-2------------------|-----2-(2)---------------|
|
| W                    +W
|--------------------|-------------------------|
|--------------------|-------------------------|
|-6------------------|-(6)---------------------|
|--------------------|-------------------------|
|-4------------------|-(4)---------------------|
|--------------------|-------------------------|


                 |-3-| |-3-|
  +E. S +E  E Q  S S S S S S    E. S +E  E Q   Q
|----------------------------|--------------------|
|-(0)------------------------|--------------------|
|----------------------------|-----------------0--|
|-------------4--2h4p2-------|-------------4------|
|-----------4----------4p2h4p|==2--------4--------|
|-----2-(2)------------------|-----2-(2)----------|
|
|  W                            H.             Q
|----------------------------|--------------------|
|----------------------------|----------------12--|
|-11-------------------------|-12-----------------|
|----------------------------|-----------------9--|
|--9-------------------------|-10-----------------|
|----------------------------|--------------------|


   E. S +E  E a Q  Q     +E. S +E  E E. S +E  E
|---------------------|--------------------------|
|---------------------|-----------------------0--|
|---------------------|-----------------3-(3)----|
|--4----------2h4--2--|--(2)---------4-----------|
|-----4-(4)-----------|------------4-------------|
|-----------2---------|------2-(2)---------------|
|
|  W                     +W
|---------------------|--------------------------|
|-14------------------|-(14)---------------------|
|---------------------|--------------------------|
|-11------------------|-(11)---------------------|
|---------------------|--------------------------|
|---------------------|--------------------------|


   E. S +E  S S Q  E E    E. S +E  E H
|----------------------|--------------------|
|--2-------------------|--------------------|
|------------------0---|-------------0------|
|-----4-(4)---2-4----2-|--4-----------------|
|-----------4----------|-----4-(4)----------|
|----------------------|-----------2--------|
|
|  W                      H.             Q
|----------------------|--------------------|
|----------------------|----------------12--|
|-11-------------------|-12-----------------|
|----------------------|-----------------9--|
|--9-------------------|-10-----------------|
|----------------------|--------------------|


   E. S +E  E Q  E E     Q.   E E. S +Q
|--------------------|--------------------|
|--------------------|-------------0-(0)--|
|--------------------|----------3---------|
|--4----------4--4-2-|--------4-----------|
|-----4-(4)----------|---4----------------|
|-----------2--------|--------------------|
|
|  W                    +W
|--------------------|--------------------|
|-14-----------------|-(14)---------------|
|--------------------|--------------------|
|-11-----------------|-(11)---------------|
|--------------------|--------------------|
|--------------------|--------------------|


  F#11
  Gtr III
  E.  S  +E  E +S  E. +Q      E.  S  +E  E +E  E +S  E.
|--------------------------|-------------------------0--|
|------------------0--(0)--|-------------------0-(0)-0--|
|-----3--(3)---------------|------3--(3)----------------|
|-----4--(4)---------------|------4--(4)----------------|
|--------------------------|----------------------------|
|-2--(2)-----2-(2)---------|--2--(2)-----2-(2)----------|
|
| W                           W
|--------------------------|----------------------------|
|--------------------------|----------------------------|
|-6------------------------|-11-------------------------|
|--------------------------|----------------------------|
|-4------------------------|--9-------------------------|
|--------------------------|----------------------------|


    E.  S  +E   E  +S  S E  Q     E  S  S E E +E. S +Q
|------------------------------|------------------0-(0)---|
|------------------------------|------------0-(0)-0-(0)---|
|---------------------------3--|----------3-------3-(3)---|
|---------------4--(4)------4--|--------4-----------------|
|-------4--(4)---------4-------|-----4--------------------|
|---2--(2)---------------2-----|--2-(2)-------------------|
|
|  +Q.          E  +Q       Q     W
|------------------------------|--------------------------|
|--------------------------11--|-12-----------------------|
|-(11)---------12-(12)---------|--------------------------|
|---------------------------8--|--9-----------------------|
|--(9)---------10-(10)---------|--------------------------|
|------------------------------|--------------------------|


   E.  S  +E  S S +Q   S S E    E  S  S +S  S E +S  S E +E  E
|----------------------------|--------------------------------|
|----------------------------|----------------------0---------|
|------3--(3)--------------3-|----------------3-(3)---0-(0)---|
|------4--(4)------------4---|--------4-(4)---4-(4)---------4-|
|-------------4--------4-----|-----4--------------------------|
|--2--(2)-------2-(2)--------|--2-(2)-------2-----------------|
|
|  H               H            H                H
|-14--------------12---------|-14---------------15------------|
|----------------------------|--------------------------------|
|-11---------------9---------|-11---------------12------------|
|----------------------------|--------------------------------|
|----------------------------|--------------------------------|
|----------------------------|--------------------------------|


   E  S  S E. S  S E S +Q     +W
|--------------------0-(0)--|-(0)----|
|------------------0-0-(0)--|-(0)----|
|----------3-----3----------|--------|
|--------4----4-------------|--------|
|-----4---------------------|--------|
|--2-(2)--------------------|--------|
|
|  H             H             W
|-18------------19----------|-21-----|
|---------------------------|--------|
|-15------------16----------|-18-----|
|---------------------------|--------|
|---------------------------|--------|
|---------------------------|--------|


  Bsus4
   Q.    E  +H         Q.    E  +H        Q.    E  +H        +W
|--------0--(0)----|---------0--(0)----|--------0--(0)----|--(0)----||
|--------0--(0)----|---------0--(0)----|--------0--(0)----|--(0)----||
|--4-----4--(4)----|---4-----4--(4)----|--4-----4--(4)----|--(4)----||
|--4-----4--(4)----|---4-----4--(4)----|--4-----4--(4)----|--(4)----||
|--2----(2)-(2)----|---2----(2)-(2)----|--2----(2)-(2)----|--(2)----||
|------------------|-------------------|------------------|---------||
|
|  W                  +W                  W                  +W
|------------------|-------------------|-14---------------|-(14)----||
|-12---------------|-(12)--------------|------------------|---------||
|------------------|-------------------|-11---------------|-(11)----||
|--9---------------|--(9)--------------|------------------|---------||
|------------------|-------------------|------------------|---------||
|------------------|-------------------|------------------|---------||


   Interlude
    F#5                 E5G5
    PM-------------------------
    S S e S e S S S S S E S S
||----------------------------|
||o---------------------------|
||----------------------------|
||----------------------------|
||o-4-4-4---4-4-4-4-4---2-5---|
||--2-2-2---2-2-2-2-2-0-0-3-0-|


 1.                         2.
  F#5                 E5     F#5
 --------------------------------------------|
  S S e S e S S S S S Q      S S e S e S S S e Q
|-------------------------||------------------------|
|------------------------o||------------------------|
|-------------------------||------------------------|
|-------------------------||------------------------|
|-4-4-4---4-4-4-4-4---2--o||-4-4-4---4-4-4-4-4------|
|-2-2-2---2-2-2-2-2-0-0---||-2-2-2---2-2-2-2-2------|


    B5                  A5C5
    PM-------------------------
    S S e S e S S S S S E S S
||----------------------------|
||o---------------------------|
||----------------------------|
||--4-4-4---4-4-4-4-4---2-5---|
||o-2-2-2---2-2-2-2-2-0-0-3-0-|
||----------------------------|


 1.                         2.
  B5                  A5     B5
 --------------------------------------------|
  S S e S e S S S S S Q      S S e S e S S S e Q
|-------------------------||----------------------||
|------------------------o||----------------------||
|-------------------------||----------------------||
|-4-4-4---4-4-4-4-4---2---||-4-4-4---4-4-4-4-4----||
|-2-2-2---2-2-2-2-2-0-0--o||-2-2-2---2-2-2-2-2----||
|-------------------------||----------------------||


 1st Synth Solo
  F#5                                     E5  G5
  PM-----------------------------------------------
  S S  e          S   e     S    S  S S S E   S S
|-------------------------------------------------|
|-------------------------------------------------|
|-------------------------------------------------|
|-------------------------------------------------|
|-4-4--4--------------4-----4----4--4-4---2---5---|
|-2-2--2--------------2-----2----2--2-2-0-0---3-0-|
|
| Gtr IV
|                                ~~~        ~
| S S  S S a     +S  +S   S S   +E    S S S E   S
|-------------------------------------------------|
|-------------------------------------------------|
|--------9----------------------------------------|
|---9-11---9b11==(9)r(9)-11-8b9r(8)-------7-------|
|-9-----------------------------------9-7---9---9-|
|-------------------------------------------------|


  F#5                                                 E5
 -----------------------------------------------------|
  S    S   e        S    e          S    S S S  S       Q
|-----------------------------------------------------------------|
|-----------------------------------------------------------------|
|-----------------------------------------------------------------|
|-----------------------------------------------------------------|
|-4----4---4-------------4----------4----4-4-4----------2---------|
|-2----2---2-------------2----------2----2-2-2--0-------0---------|
|
|                                        ~~
| T  T T T T  T T T T  T T  T T  T  T T  E   S  S      +E.  +S
|-------------------------------------9h12---9-12b14==(12)-(12)r==|
|--------------------------10p7h12p10-----------------------------|
|-----------------9p6h11p9----------------------------------------|
|--------9p7h11p9-------------------------------------------------|
|-7h12p9----------------------------------------------------------|
|-----------------------------------------------------------------|


  F#5                                            E5          G5
   PM---------------------------------------------------------------------
   S    S   e       S   e     S  S S  S     S     E           S     S
|------------------------------------------------------------------------|
|------------------------------------------------------------------------|
|------------------------------------------------------------------------|
|------------------------------------------------------------------------|
|--4----4---4-----------4-----4--4-4--4-----------2-----------5----------|
|--2----2---2-----------2-----2--2-2--2-----0-----0-----------3-----0----|
|
|                                ~~                  T                 T
|  E       +E      +S   S  S  S  E    T  T  T  T  T  T  T  T  T  T  T  T
|-18b19r==(18)b19r(18)-14-12-15-14---15p14p12----------------------------|
|---------------------------------------------14p12-17p14p12-------------|
|------------------------------------------------------------12h15h16-18p|
|------------------------------------------------------------------------|
|------------------------------------------------------------------------|
|------------------------------------------------------------------------|


  F#5
 ---------------------------------------------|
   S  S e      S  e            S    S     S   e     Q
|---------------------------------------------------------------|
|---------------------------------------------------------------|
|---------------------------------------------------------------|
|---------------------------------------------------------------|
|--4--4-4---------4------------4----4-----4---4-----------------|
|--2--2-2---------2------------2----2-----2---2-----------------|
|
|  ~~~~~~~~~~~~~~~                     T        ~~~~~~~
|                 |-3--|
|  E.      S  +S  T  T T  T  T T  T T  T  T T T S. +S  S S  S
|---------------------------------------------------------------|
|---------------------------------------------------------------|
|-15------12-(12)-9h12p9-12p11p9--------------------------------|
|--------------------------------11p9-14p11p9p8-----------------|
|-----------------------------------------------9--(9)-7-9-10---|
|---------------------------------------------------------------|


  B5                                     A5  C5
  PM------------------------------------------------
  S   S  e    S e      S  S      S S   S E   S S
|--------------------------------------------------|
|--------------------------------------------------|
|--------------------------------------------------|
|-4---4--4------4------4--4------4-4-----2---5-----|
|-2---2--2------2------2--2------2-2---0-0---3-0---|
|--------------------------------------------------|
|
| E     +S  S E   E      +T  +T  S E     S S S T T
|--------------------------------------------------|
|--------------------------------------------------|
|--------------------------------------------------|
|-----------------7b9====(7)r(7)-------------------|
|-6b7r==(6)----------------------9-7b9r==7-6---6h7-|
|-----------8-7------------------------------8-----|


  B5                                                       A5
 ----------------------------------------------------------|
  S   S   e          S     e           S     S S  S  S       Q
|-------------------------------------------------------------------------------|
|-------------------------------------------------------------------------------|
|-------------------------------------------------------------------------------|
|-4---4---4----------------4-----------4-----4-4--4----------2------------------|
|-2---2---2----------------2-----------2-----2-2--2--0-------0------------------|
|-------------------------------------------------------------------------------|
|
|                                            ~~      ~~~~~~~~~~~
| T T T T T T  T  T  T  T  T  T  T  T  T  T  E    S  S      +E   +T   +T   T  T
|-------------------------------------17h19p17------19b21==(19)-(19)r(19)-------|
|----------------------------16h17h19------------19-----------------------22p19-|
|----------------------14h16----------------------------------------------------|
|-4h7-----7h9-13h14h16----------------------------------------------------------|
|-----7h9-----------------------------------------------------------------------|
|-------------------------------------------------------------------------------|


  B5                                                            A5      C5
   PM-----------------------------------------------------------------------|
   S    S   e           S     e           S     S     S     S S E       S    S
|--------------------------------------------------------------------------------|
|--------------------------------------------------------------------------------|
|--------------------------------------------------------------------------------|
|--4----4---4-----------------4-----------4-----4-----4-----4---2-------5--------|
|--2----2---2-----------------2-----------2-----2-----2-----2-0-0-------3----0---|
|--------------------------------------------------------------------------------|
|
|                                               T        T  ~~               T
|  E       +S      +S   T  T  T  T  T  T  T  T  T  T  T  T  E   T T T T T T  T T
|-21b23---(21)b24r(21)p19p17------------------------------------0h5p2p0----------|
|----------------------------19p17p16-19p17p16--------------------------4p0-12p0-|
|----------------------------------------------17p14p11-16p14--------------------|
|--------------------------------------------------------------------------------|
|--------------------------------------------------------------------------------|
|--------------------------------------------------------------------------------|


  B5
   PM-----------------------------------------------|
   S    S    e         S    e         S    S    S    e         Q
|------------------------------------------------------------------------------------||
|------------------------------------------------------------------------------------||
|------------------------------------------------------------------------------------||
|--4----4----4--------------4---------4----4----4----4-------------------------------||
|--2----2----2--------------2---------2----2----2----2-------------------------------||
|------------------------------------------------------------------------------------||
|
|  T    T    T    T    T    T    T    T    T    T    T    T    T    T    T     T
|  T T  T T  T T  T T  T T  T T  T T  T T  T T  T T  T T  T T  T T  T T  T  T  T  T
|----------------------------------------------17p5-17p5-19p7-19p7-20p8-23p11-24p12--||
|-12p0-13p1-13p1-16p4-16p4-17p5-17p5-19p7-19p7---------------------------------------||
|------------------------------------------------------------------------------------||
|------------------------------------------------------------------------------------||
|------------------------------------------------------------------------------------||
|------------------------------------------------------------------------------------||


 2nd Guitar Solo
  F#5                                                    E5       G5
   PM--------------------------------------------------------------------
   S         S  e      S  e  S   S          S  S       S E        S S
|-----------------------------------------------------------------------|
|-----------------------------------------------------------------------|
|-----------------------------------------------------------------------|
|-----------------------------------------------------------------------|
|--4---------4--4---------4--4---4----------4--4---------2--------5-----|
|--2---------2--2---------2--2---2----------2--2-------0-0--------3-0---|
|
|                                >
|  H                            +H
|-24b26========================(24)r------------------------------------|
|-----------------------------------------------------------------------|
|-----------------------------------------------------------------------|
|-----------------------------------------------------------------------|
|-----------------------------------------------------------------------|
|-----------------------------------------------------------------------|
|
| Gtr II
|                      ~~~~
|                                |---3---|     |--3--|
|  S      a  S  S  S   E.    S   T    T  T  S  T  T  T S T  T T T S S
|-----------------------------------------------------------------------|
|--------14s11-11h12-/17----12--12h==14p12p11-11h12p11s8-8h11p8p7-8-7b8r|
|-----------------------------------------------------------------------|
|-----------------------------------------------------------------------|
|-----------------------------------------------------------------------|
|-----------------------------------------------------------------------|


  F#5                                                            E5
 ----------------------------------------------------------------|
   S    S  e      S   e           S     S        S        S  S    Q
|---------------------------------------------------------------------------------------|
|---------------------------------------------------------------------------------------|
|---------------------------------------------------------------------------------------|
|---------------------------------------------------------------------------------------|
|--4----4--4----------4-----------4-----4--------4--------4-------2---------------------|
|--2----2--2----------2-----------2-----2--------2--------2--0----0---------------------|
|
|  W
|---------------------------------------------------------------------------------------|
|---------------------------------------------------------------------------------------|
|---------------------------------------------------------------------------------------|
|---------------------------------------------------------------------------------------|
|---------------------------------------------------------------------------------------|
|---------------------------------------------------------------------------------------|
|
|                                                                         ~~~~~~~~~
| +S    S  E     +S   T  T  T  T  T  T  T  X  X  T  X  X  S  T T  S      +S   +S   +S
|-----/15-14b15r(14)----13-14-15-14-13--------------------------------------------------|
|-(7)----------------15----------------15p14p12------------------15b17==(15)-(15)r(15)/-|
|-----------------------------------------------12p10h11-12-11-9------------------------|
|---------------------------------------------------------------------------------------|
|---------------------------------------------------------------------------------------|
|---------------------------------------------------------------------------------------|


  F#5                                                            E5                   G5
    PM----------------------------------------------------------------------------------------|
    S     S  e     S           e              S   S      S  S  S  E                   S         S
|-------------------------------------------------------------------------------------------------|
|-------------------------------------------------------------------------------------------------|
|-------------------------------------------------------------------------------------------------|
|-------------------------------------------------------------------------------------------------|
|---4-----4--4-----------------4--------------4---4------4--4-----2-------------------5-----------|
|---2-----2--2-----------------2--------------2---2------2--2--0--0-------------------3---------0-|
|
| Gtr II
|                           T     T           ~~~~~~~                      T     T              ~~~
|                              |-----5-----|                                  |------5------|
|   T  T  S  S  S  X  X  X  X  T  T  T  T  T  S  +S   a  S  S  S  X  X  X  X  T  T  T    T  T   S
|-/16-16s13-13h14-14h15h17-18p17-18p17p15p14p12-(12)-16s13-13h14-14h15h17-18p17-18p17p==15p14-/21-|
|-------------------------------------------------------------------------------------------------|
|-------------------------------------------------------------------------------------------------|
|-------------------------------------------------------------------------------------------------|
|-------------------------------------------------------------------------------------------------|
|-------------------------------------------------------------------------------------------------|


  F#5
    PM----------------------------------------------------------------------------------------------------------------|
    S   S           e              S           e                     S         S           S        S        S         Q
|----------------------------------------------------------------------------------------------------------------------------------------------------------||
|----------------------------------------------------------------------------------------------------------------------------------------------------------||
|----------------------------------------------------------------------------------------------------------------------------------------------------------||
|----------------------------------------------------------------------------------------------------------------------------------------------------------||
|---4---4-----------4--------------------------4---------------------4---------4-----------4--------4--------4---------4-----------------------------------||
|---2---2-----------2--------------------------2---------------------2---------2-----------2--------2--------2---------2-----------------------------------||
|
|   ~~~~         T     T           T     T                  T     T                     T              T     T         T     T         T      T
|                   |-----5-----|              |--3---|              |--3--|               |--3--|  |------6-------|   |-----6------|
|  +S   X  X  X  X  T  T  T  T  T  X  X  X  X  T  T   T  X  X  X  X  T  T  T   X  X  X  X  T  T  T  T  T  T  T  T  T   T  T  T  T T T  X X X  X X X X X
|-(21)-14h15h17-18p17-18p17p15p14-18p17-18p17p15p14\-12h15-18p15-18p15p14p12\-11h12h14-18p14p12s10h12-18p12-18p12p10\-18p10-18p10p9p7-18p7h9-18p7h9p7p6----||
|----------------------------------------------------------------------------------------------------------------------------------------------------------||
|----------------------------------------------------------------------------------------------------------------------------------------------------------||
|----------------------------------------------------------------------------------------------------------------------------------------------------------||
|----------------------------------------------------------------------------------------------------------------------------------------------------------||
|----------------------------------------------------------------------------------------------------------------------------------------------------------||


  Bm                       G5
  Gtr V
  E. S E E +S  S E E S S    E. S E E +S  S E E S S
|-2--2-2-2-(2)-2-2-2-2-2-|--3--3-3-3-(3)-3-3-3-3-3-|
|-3--3-3-3-(3)-3-3-3-3-3-|--3--3-3-3-(3)-3-3-3-3-3-|
|-4--4-4-4-(4)-4-4-4-4-4-|--0--0-0-0-(0)-0-0-0-0-0-|
|-4--4-4-4-(4)-4-4-4-4-4-|--0--0-0-0-(0)-0-0-0-0-0-|
|-2--2-2-2-(2)-2-2-2-2-2-|-------------------------|
|------------------------|--3--3-3-3-(3)-3-3-3-3-3-|
|
|           >
| H        +H              +W
|-7--------(7)-----------|-(7)---------------------|
|------------------------|-------------------------|
|------------------------|-------------------------|
|------------------------|-------------------------|
|------------------------|-------------------------|
|------------------------|-------------------------|


  C#m7b5                   Em         F#susF#5
  E. S E E +S  S E E S S   E. S E S S E. S E S S
|-0--0-0-0-(0)-0-0-0-0-0-|-0--0-0-0-0------------|
|-0--0-0-0-(0)-0-0-0-0-0-|-0--0-0-0-0-3--3-2-2-2-|
|-6--6-6-6-(6)-6-6-6-6-6-|-0--0-0-0-0-4--4-3-3-3-|
|-5--5-5-5-(5)-5-5-5-5-5-|-2--2-2-2-2-4--4-4-4-4-|
|-4--4-4-4-(4)-4-4-4-4-4-|-2--2-2-2-2------4-4-4-|
|------------------------|-0--0-0-0-0-2--2-2-2-2-|
|
| W                        W
|------------------------|-----------------------|
|------------------------|-----------------------|
|------------------------|-----------------------|
|------------------------|-----------------------|
|------------------------|-----------------------|
|------------------------|-----------------------|


  Bm                       G5
  E. S E E +S  S E E S S   E. S E E +S  S E E S S
|-2--2-2-2-(2)-2-2-2-2-2-|-3--3-3-3-(3)-3-3-3-3-3-|
|-3--3-3-3-(3)-3-3-3-3-3-|-3--3-3-3-(3)-3-3-3-3-3-|
|-4--4-4-4-(4)-4-4-4-4-4-|-0--0-0-0-(0)-0-0-0-0-0-|
|-4--4-4-4-(4)-4-4-4-4-4-|-0--0-0-0-(0)-0-0-0-0-0-|
|-2--2-2-2-(2)-2-2-2-2-2-|------------------------|
|------------------------|-3--3-3-3-(3)-3-3-3-3-3-|


  Em                       G5/D       C
  E. S E E +S  S E S S E   E. S E S S H
|-0--0-0-0-(0)-0-0-0-0-0-|-3--3-3-3-3-0----||
|-0--0-0-0-(0)-0-0-0-0-0-|-3--3-3-3-3-1----||
|-0--0-0-0-(0)-0-0-0-0-0-|-0--0-0-0-0-0----||
|-2--2-2-2-(2)-2-2-2-2-2-|-0--0-0-0-0-2----||
|-2--2-2-2-(2)-2-2-2-2-2-|------------3----||
|-0--0-0-0-(0)-0-0-0-0-0-|-----------------||


   Interlude
    N.C.
   11/8                                4/
    Gtr III
            ~~~~~~          ~
    E e S e S +E  e e S S S E S S S  4x
||-----------------------------------||-|
||o---------------------------------o||-|
||-----------------------------------||-|
||----0-----2-(2)---3---0---2-0------||-|
||o-2-----2-------2-------------0h1-o||-|
||-----------------------------------||-|


 4
    E. S S S S S +S  S S S +Q     E. S S S S S +S  S E +Q
||------------------------------|-----------------------------||
||o-----------------------------|----------------------------o||
||------------------------------|-----------------------------||
||-----------2-4-(4)------------|----------2-4-(4)------------||
||o------2h4---------4----------|------2h4---------2-0-(0)---o||
||--2--2---------------2-0-(0)--|-2--2------------------------||


 2nd Synth Solo
  N.C.
 11/8
                    ~~          ~~~~~~  ~~~~~~~~~~
           E        E     S e   S +S  S E    E       S     S        S   S    +S  T T S S
|------------------------------------------------------------------------------------------|
|-----------------------------------------------------------------------9b10r(9)-----------|
|-------------------7-----------9-(9)-7-----10-------------7------------9b10r(9)-7---------|
|----------9----------------9-----------9------------------------------------------9-7h8---|
|------------------------------------------------------------------------------------------|
|------------------------------------------------------------------------------------------|
|
| Gtr IV
|                         ~~    ~~~~~~
|  a      +S   +S   S  S  E   S S +S  S S S  S     S S     S a     +S  +S     S  S   S T T
|------------------------------------------------------------------------------------------|
|-10b12==(10)r(10)----10--------------------------10------10-------------------------------|
|------------------11----11---7-9-(9)-7-9-7--9b11----9b11----9b11==(9)r(9)----7------4-7p4-|
|--------------------------------------------------------------------------------9---------|
|------------------------------------------------------------------------------------------|
|------------------------------------------------------------------------------------------|


          ~~                  ~~~~~~~~  ~~~~~~~~~~~~
  E       E       S   e       S   +S  S E         E          S     S     S     S       +S     T  T  S     S
|---------------------------------------------------------------------------------------------------------------|
|------------------------------------------------------------------------------9b10r===(9)----------------------|
|---------7-------------------9---(9)-7----------10----------------7-----------9b10r===(9)----7-----------------|
|-9-------------------9-----------------9--------------------------------------------------------9--7h====8-----|
|---------------------------------------------------------------------------------------------------------------|
|---------------------------------------------------------------------------------------------------------------|
|
|                                  ~~~
| T T T T T T T T T T T T T T T T  E    T  T T T  T T  T  T  T  T  T  T  T  T  T     T  T  T  T  T  T  T  T  T
|-----------------------------------------------------------------------------------------------------17h19h22--|
|--------------------------------------------------------------------------------------------15h17h18-----------|
|-9p7----------------------------------------------------------------------14h16-------14h16--------------------|
|-----9p7-9p4-9p7p4-7p4----------------------------------12h16-------14h15----------15--------------------------|
|-----------------------9p7p5------5---------9------9h12-------14h17--------------------------------------------|
|-----------------------------7p5-------7h10---7h10-------------------------------------------------------------|


      ~~~                           ~~~~~~~          ~~~~~~
   E  E           S     e           S  +S   S        E  E          S  S     S     S       +S     T  T  S    S
|---------------------------------------------------------------------------------------------------------------|
|---------------------------------------------------------------------------------9b10r===(9)-------------------|
|-----7-----------------------------9--(9)--7----------10-------------7-----------9b10r===(9)----7--------------|
|--9--------------------9----------------------------9----------------------------------------------9--7h===8---|
|---------------------------------------------------------------------------------------------------------------|
|---------------------------------------------------------------------------------------------------------------|
|
|  ~~                   T           ~~~~~~~          ~~          ~~         T
|                                           |--3--|     |--3--|
|  E  T  T  T  T  T  T  T  T  T  T  S  +S   T  T  T  E  T  T  T  E    T  T  T  T  T     T  T  T  T  T  T T  T T
|-19-17h22p19p17------------------------------------------------------------------------------------------------|
|----------------19p17-22p19p17p15-17-(17)-17p15p12h17-17p15p12h17---15p12-17p15p12p===10-15p10-15p10------10p7-|
|-----------------------------------------------------------------------------------------------------11p9------|
|---------------------------------------------------------------------------------------------------------------|
|---------------------------------------------------------------------------------------------------------------|
|---------------------------------------------------------------------------------------------------------------|


     ~~                      ~~~~~~  ~~~~~~~~~
   E E          S    e       S +S  S E     E   S  S     S           S        +T   T  S     S     S
|------------------------------------------------10----------------12b13r===(12)p10--------------------|
|-----------------------------------------------------------------------------------12----10h===11-----|
|----7-----------------------9-(9)-7------10-----------------------------------------------------------|
|--9-----------------9---------------9-----------------------------------------------------------------|
|------------------------------------------------------------------------------------------------------|
|------------------------------------------------------------------------------------------------------|
|
|  ~~
|  E T  T  T  T T T  T T T T S  S  E    S  E   S  T  T  X  X  X  X  T     T   T   T  S     T  T  T  T
|------------------------------------------------------------------------19h=22h=24-19b20r17-----------|
|-10-7h12p10-------------------------------------------------15h17h18------------------------17p14p12--|
|------------11p9p7-11p9p7---7s11s16s==14s10\----------14h16-------------------------------------------|
|--------------------------9---------------------12h14-------------------------------------------------|
|---------------------------------------------14-------------------------------------------------------|
|------------------------------------------------------------------------------------------------------|


 4/4
   ~~~                                           ~~~~~~~~~~~~~~~~
   E.  S   
comments
We did not receive enough feedback on this tab! Please rate:
1 2 3 4 5
1 comment total.
0 reply
joeadzhiyev(: wrote on June 10 2007, 07:07 pm

dude you stole this from me to!!stop stealing my tabs you ultimate guitar poser!!!!!!!. god, andrew your so gay dude. get your own life and learn to live it. i can see why you would steal my tab seeing as you suck at guitar and all. but come on dude theres more to life then stealing my work and taking all the credit.me and my band(yes i said band cuz i actully have friends to play guitar with)are going to come up with a song singing about how gay you are. are you going to try and tab that too?but oh yeah, thats right,you suck. i forgot. but i am sure there will be tons of people tabbing that song and then you can copy and past them on and take credit for it as well.haha

stop stealing from mxtabs!.............fag.

I want to post or [tab]
guest
You may want to rate the tab now too:
select rating
Please do not post tabs as comments. Select "correction" instead!