Oops, an error
Loading. Please wait.

Universal Mind Bass Tab

ver1
ver1

Whole song

Interactive

More versions @911Tabs.com
4,074 views 14 this week
1 commentread comment
1 2 3 4 5
accurate
x 4
add to favorites launch autoscroll
font size
0
reset
Autoscroll
+/-
esc
set tempo
stop
Contributor
WARNING: You are trying to view
                                    content from Ultimate-Guitar.com
                                    in an unauthorized application,
                                    which is prohibited.

                                    Please use an official Ultimate
                                    Guitar Tabs application for iPhone,
                                    iPad or Android to access legitimate
                                    chords, guitar, bass, and drum tabs
                                    from Ultimate-Guitar.com database.

                                    Type "ultimate guitar tabs" in Apple
                                    App Store's or Android Market's
                                    search to find the application.
Universal Mind - Bass Tab


Author - Justin Sepulveda and Rob Lichtenberger


Liquid Tension Experiment
Universal Mind Bass Tab
Artist: Tony Levin
Tabbed by Justin Sepulveda and Rob Lichtenberger

Here is the full bass tab of Universal Mind.  Like I said before, this tab may not be fully accurate because of the
fact that it is done on a chapman stick.  Rob helped me finish this song. As a matter of fact, he finished everything
that I had not completed the first time I tabbed this.
If anyone has corrections, Email them to YtseJamJMB@aol.com.

Intro (0:00)
G-------------------------------------------------------|------------------------------------------------------|
D------3------------------------------------------------|------------------------------------------------------|
A-------------------------------------------------------|--5---------------------------------------------------|
E-------------------------------------------------------|------------------------------------------------------|
                                                                         
G-------------------------------------------------------|------------------------------------------------------|
D-------------------------------------------------------|------------------------------------------------------|
A------3------------------------------------------------|------------------------------------------------------|
E-------------------------------------------------------|------------------------------------------------------|
                                                                         
G-------------------------------------------------------|------------------------------------------------------|
D------3------------------------------------------------|------------------------------------------------------|
A-------------------------------------------------------|--5---------------------------------------------------|
E-------------------------------------------------------|------------------------------------------------------|
                                                                         
G-------------------------------------------------------|------------------------------------------------------|
D-------------------------------------------------------|------------------------------------------------------|
A------3------------------------------------------------|------------------------------------------------------|
E-------------------------------------------------------|------------------------------------------------------|

Pre-Verse 1 (0:12)

G-------------------------------------------------------|------------------------------------------------------|
D-------------------------------------------------------|------------------------------------------------------|
A------5------------------------------------------------|------------------------------------------------------|
E-------------------------------------------------------|--0------------------1----------------3-5-------------|
                                                                         
G-------------------------------------------------------|------------------------------------------------------|
D-------------------------------------------------------|------------------------------------------------------|
A-------------------------------------------------------|--------------------------------------3---------------|
E------6------------------------------------------------|--3------------------5--------------------------------|
                                                                         
G-------------------------------------------------------|------------------------------------------------------|
D-------------------------------------------------------|------------------------------------------------------|
A------5------------------------------------------------|------------------------------------------------------|
E-------------------------------------------------------|--0------------------1----------------3-5-------------|
                                                                         
G-------------------------------------------------------|------------------------------------------------------|
D-------------------------------------------------------|------------------------------------------------------|
A-------------------------------------------------------|--------------------------------------3---------------|
E------6------------------------------------------------|--3------------------5--------------------------------|

Verse 1 (0:24)                                                           

G--7---------------------------|-------5-------9--5--7--|----------------------5----|--9--------------------5--|
D------------------------------|-5--7-------------------|----------------5--7-------|----5----------------7----|
A-----5---------------7-----8--|------------------------|-5--------7--8-------------|--------------------------|
E------------------------------|------------------------|---------------------------|--------------------------|

G--7---------------------------|-------5-------9--5--7--|----------------------5----|-(5)----------------------|
D------------------------------|-5--7-------------------|----------------5--7-------|--------------------------|
A-----5---------------7-----8--|------------------------|-5--------7--8-------------|--------------------------|
E------------------------------|------------------------|---------------------------|--------------------------|

G--7---------------------------|-------5-------9--5--7--|----------------------5----|--9--------------------5--|
D------------------------------|-5--7-------------------|----------------5--7-------|----5----------------7----|
A----5----------------7-----8--|------------------------|-5--------7--8-------------|--------------------------|
E------------------------------|------------------------|---------------------------|--------------------------|

G--7---------------------------|-------5-------9--5--7--|----------------------5----|-(5)----------------------|
D------------------------------|-5--7-------------------|----------------5--7-------|--------------------------|
A-----5---------------7-----8--|------------------------|-5--------7--8-------------|--------------------------|
E------------------------------|------------------------|---------------------------|--------------------------|

G------------------------------|------------------------|---------------------------|--------------------------|
D--5---------------------------|-------3-------7--3--5--|----------------------3----|--7--------------------3--|
A------------------------------|-3--5-------------------|----------------3--5-------|----3----------------5----|
E-----3---------------5-----6--|------------------------|-3--------5--6-------------|--------------------------|

G------------------------------|------------------------|---------------------------|--------------------------|
D--5---------------------------|-------3--------7--3--5-|----------------------3----|-(3)----------------------|
A------------------------------|-3--5-------------------|----------------3--5-------|--------------------------|
E-----3---------------5-----6--|------------------------|-3--------5--6-------------|--------------------------|

Pre-Verse 2 (1:01)

G------------------------------|------------------------|---------------------------|--------------------------|
D------------------------------|------------------------|---------------------------|--------------------------|
A------5--------------------1--|------------------------|-3-------------------------|------1-3-----------------|
E------------------------------|----------3-------------|----------------------5----|----------1---------------|

G------------------------------|------------------------|---------------------------|--------------------------|
D------------------------------|------------------------|---------------------------|--------------------------|
A------5--------------------1--|------------------------|--5-----------1--------3---|--------------------------|
E------------------------------|----------3-------------|---------------------------|----------------3/12\3----|

G------------------------------|------------------------|---------------------------|--------------------------|
D------------------------------|------------------------|---------------------------|--------------------------|
A------5-------------------1---|------------------------|-3-----------0--------1----|--------------------------|
E------------------------------|----------3-------------|---------------------------|--------------------------|

G------------------------------|------------------------|---------------------------|--------------------------|
D------------------------------|------------------------|----------------------1-(1)|--------------------------|
A------5--------------------1--|----------3-------------|-5-----------1-------------|--------------------------|
E------------------------------|------------------------|---------------------------|--------------------------|

Intro Again (1:28)

G-------------------------------------------------------|------------------------------------------------------|
D------3------------------------------------------------|------------------------------------------------------|
A-------------------------------------------------------|--5---------------------------------------------------|
E-------------------------------------------------------|------------------------------------------------------|
                                                                         
G-------------------------------------------------------|------------------------------------------------------|
D-------------------------------------------------------|------------------------------------------------------|
A------3------------------------------------------------|------------------------------------------------------|
E-------------------------------------------------------|------------------------------------------------------|
                                                                         
G-------------------------------------------------------|------------------------------------------------------|
D------3------------------------------------------------|------------------------------------------------------|
A-------------------------------------------------------|--5---------------------------------------------------|
E-------------------------------------------------------|------------------------------------------------------|
                                                                         
G-------------------------------------------------------|------------------------------------------------------|
D-------------------------------------------------------|------------------------------------------------------|
A------3------------------------------------------------|------------------------------------------------------|
E-------------------------------------------------------|------------------------------------------------------|

Verse 1 (1:40)                                                           

G--7---------------------------|-------5-------9--5--7--|----------------------5----|--9--------------------5--|
D------------------------------|-5--7-------------------|----------------5--7-------|----5----------------7----|
A-----5---------------7-----8--|------------------------|-5--------7--8-------------|--------------------------|
E------------------------------|------------------------|---------------------------|--------------------------|

G--7---------------------------|-------5-------9--5--7--|----------------------5----|-(5)----------------------|
D------------------------------|-5--7-------------------|----------------5--7-------|--------------------------|
A-----5---------------7-----8--|------------------------|-5--------7--8-------------|--------------------------|
E------------------------------|------------------------|---------------------------|--------------------------|

Verse 2 (1:51)

G-----------------------|-----------------------|----------------------|-----------------------|
D-----------------------|-----------------------|----------------------|-----------7-5---------|
A--------------3-5------|----------------3-5-(5)|-----------3-5--------|----------------6-5-(5)|
E--3----5--3-5------1-3-|----1-3--5--3-5--------|----5--3-5-------1-3--|----1-3-5--------------|

G-----------------------|-----------------------|----------------------|-----------------------|
D-----------------------|-----------------------|----------------------|-----------7-5---------|
A--------------3-5------|----------------3-5-(5)|-----------3-5--------|----------------6-5-(5)|
E-------5--3-5------1-3-|----1-3--5--3-5--------|----5--3-5-------1-3--|----1-3-5--------------|

G-----------------------|-----------------------|----------------------|-----------------------|---------------|
D-----------------------|-----------------------|----------------------|-----------7-5---------|---------------|
A--------------3-5------|----------------3-5-(5)|-----------3-5--------|----------------6-5----|---------------|
E-------5--3-5------1-3-|----1-3--5--3-5--------|----5--3-5-------1-3--|----1-3-5--------------|----5--3--1----|

G-----------------------|-----------------------|----------------------|-----------11-9--------|
D--------------7-9------|----------------7-9-(9)|-----------7-9--------|----------------10-9(9)|
A-------9--7-9------5-7-|----5-7--9--7-9--------|----9--7-9-------5-7--|----5-7-9--------------|
E-----------------------|-----------------------|----------------------|-----------------------|

G-----------------------|-----------------------|----------------------|-----------11-9--------|
D--------------7-9------|----------------7-9-(9)|-----------7-9--------|----------------10-9(9)|
A-------9--7-9------5-7-|----5-7--9--7-9--------|----9--7-9-------5-7--|----5-7-9--------------|
E-----------------------|-----------------------|----------------------|-----------------------|

G-----------------------|-----------------------|----------------------|-----------------------|
D-----------------------|-----------------------|----------------------|-----------7-5---------|
A--------------3-5------|----------------3-5-(5)|-----------3-5--------|----------------6-5-(5)|
E-------5--3-5------1-3-|----1-3--5--3-5--------|----5--3-5-------1-3--|----1-3-5--------------|

G-----------------------|-----------------------|----------------------|-----------------------|---------------|
D-----------------------|-----------------------|----------------------|-----------7-5---------|---------------|
A--------------3-5------|----------------3-5-(5)|-----------3-5--------|----------------6-5----|---------------|
E-------5--3-5------1-3-|----1-3--5--3-5--------|----5--3-5-------1-3--|----1-3-5--------------|----5--3--1----|

G-----------------------|-----------------------|----------------------|-----------11-9--------|
D--------------7-9------|----------------7-9-(9)|-----------7-9--------|----------------10-9(9)|
A-------9--7-9------5-7-|----5-7--9--7-9--------|----9--7-9-------5-7--|----5-7-9--------------|
E-----------------------|-----------------------|----------------------|-----------------------|

G-----------------------|-----------------------|----------------------|-----------11-9--------|
D--------------7-9------|----------------7-9-(9)|-----------7-9--------|----------------10-9---|
A-------9--7-9------5-7-|----5-7--9--7-9--------|----9--7-9-------5-7--|----5-7-9--------------|
E-----------------------|-----------------------|----------------------|-----------------------|

Piano Solo (3:46)

Funk Bass (4:16)
                                        1313131                                        1313131
                                        LLRRRLL                                        LLRRRLL
G----------------7~~----|-----------------464---|----------------9-7~~-|-----------------464---|
D-----------------------|----------------4---4--|----------------------|----------------4---4--|
A----2--020202----------|----2--020202--2-----2-|--020202--------------|----2--020202--2-----2-|
E-----------------------|-----------------------|----------------------|-----------------------|

                    			1313131		          		       1313131
                                        LLRRRLL                                        LLRRRLL
G--------------6-7~~----|-----------------464---|---------6--6-7~~-----|-----------------464---|
D-----------------------|----------------4---4--|----------------------|----------------4---4--|
A--020202---------------|----2--020202--2-----2-|--020202--------------|----2--020202--2-----2-|
E-----------------------|-----------------------|----------------------|-----------------------|

					1313131					       1313131
					LLRRRLL					       LLRRRLL
G---------6--6-7~~------|-----------------464---|---------6--6-7~~-----|-----------------464---|
D-----------------------|----------------4---4--|----------------------|----------------4---4--|
A--020202---------------|----2--020202--2-----2-|--020202--------------|----2--020202--2-----2-|
E-----------------------|-----------------------|----------------------|-----------------------|

Break (4:57)
					1313131					       1313131
					LLRRRLL					       LLRRRLL
G--------------6--6-7~~-|-----------------464---|---------6--6-7~~-----|-----------------464---|
D-----------------------|----------------4---4--|----------------------|----------------4---4--|
A----2--020202----------|----2--020202--2-----2-|--020202--------------|----7--5-3-----2-----2-|
E-----------------------|-----------------------|----------------------|-----------------------|

					1313131					
					LLRRRLL					
G--------------6--6-7~~-|-----------------464---|---------6--6-7~~-----|-----------------------|
D-----------------------|----------------4---4--|----------------------|-----------------------|
A----2--020202----------|----2--020202--2-----2-|--020202--------------|----7--5-3-(3)---------|
E-----------------------|-----------------------|----------------------|-----------------------|

5:25

G |------------------|---------------7~~---|------------------|---------------------|
D |------------------|---------------------|------------------|---------------------|
A |---2---2---2---2--|----2---2--2---------|---2---2---2---2--|----2---2--2---------|
E |------------------|---------------------|------------------|---------------------|

G |------------------|--------------9-7~~--|------------------|---------------------|
D |------------------|---------------------|------------------|---------------------|
A |---2---2---2---2--|----2---2------------|---2---2---2---2--|----2---2--2---------|
E |------------------|---------------------|------------------|---------------------|


5:38

G |-----------------------------------|---------------------------5h7p5~~-|
D |------------------------------/7\--|-------------------------5---------|
A |-------2----------(5)--------------|--2------3-----------0-2-----------|
E |--0---------2--3--------2--5-------|------2-----3--0-1-3---------------|

5:50    play 4x

G |---------------------------------------------------------------------------------|
D |'-----------------------------------------3--5--7--8--5-----8--7--------5--2-----|
A |.-5-----5--8--7-----------7--8---------3-----------------5--------8--3--------3--|
E |-----5-----------8--5--6--------0h1h3--------------------------------------------|

                               6:18

G |------------------------ |-|-------------------------|-----------|----5----------------|
D |-----------0h2h3--------'|-|-------------5--------7--|-----7--8--|-------8-7-5-7-5---7-|
A |---------3--------------.|-|-5-----5--8-----7--------|-----------|-----------------8---|
E |--0h1h3----------------- |-|----5--------------5-----|-5---------|-5-------------------|

                                                               6:27

G |-------------------------|-----------|----5---------------| ----------------|
D |-------------5--------7--|-----7--8--|-------8-7-5-7-5----|'----------------|
A |-5-----5--8-----7--------|-----------|-----------------8--|.-5---3---1------|
E |----5--------------5-----|-5---------|-5------------------| ------------0-1-|

                                   6:41

G |---------------------------- |-|---------------------|---------|-------|--------|
D |---------------------2h3h5--'|-|-------------5-------|-7-----7-|-8-5---|---7-10-|
A |----------3--------3--------.|-|-5-----5--8-----7----|---------|-----7-|-8------|
E |--3---1------0h1h3---------- |-|----5--------------5-|----5----|-------|--------|

                                   6:47

G |---------|----------|----------|------------------------|-----|
D |----8-12-|----10-14-|----12-15-|------------------------|-----|
A |-10------|-12-------|-13-------|-(5)-----------0--1--3--|-(3)-|  REPEAT INTRO 2X
E |---------|----------|----------|------0--1--3-----------|-----|

   7:25

G |-----|--------|-----|--------|----------------|---------------|
D |-----|--------|-----|--------|-3--------------|---------------|
A |-----|-2-5----|-----|-2-5----|-----5---1---3\-|-8---5---1---3-|
E |-1---|--------|-1---|--------|----------------|---------------|

CLOWN PART

G |----------------------------|----|----|------|
D |-3---3---3---3-3----5---5---|----|-3--|----3-|
A |---3---3---3--3-------3---3-|-3--|----|--3---|
E |----------------------------|----|----|------|
comments
print report bad tab
1 comment total.
0 reply
vegaboy10 wrote on April 1 2008, 04:26 pm

You're missing a lot of fills. What you have is correct. Mostly around the times 1:40-3:46. That whole section has a lot of quick fills that go along with the quick drum riffs at the end of every few measures.

I want to post or [tab]
guest
You may want to rate the tab now too:
select rating
Please do not post tabs as comments. Select "correction" instead!