Oops, an error
Loading. Please wait.

When The Water Breaks Tab

ver1
ver1

Whole song

Interactive

More versions @911Tabs.com
16,104 views 31 this week
6 commentsread comments
1 2 3 4 5
excellent!
x 10
Autoscroll
+/-
esc
set tempo
stop
Hey! There's an official Ultimate Guitar app which is ideal
for learning songs when you're away from computer. Get the app
WARNING: You are trying to view
                                    content from Ultimate-Guitar.com
                                    in an unauthorized application,
                                    which is prohibited.

                                    Please use an official Ultimate
                                    Guitar Tabs application for iPhone,
                                    iPad or Android to access legitimate
                                    chords, guitar, bass, and drum tabs
                                    from Ultimate-Guitar.com database.

                                    Type "ultimate guitar tabs" in Apple
                                    App Store's or Android Market's
                                    search to find the application.
   0:33              0:35
E :-----------------|-10--------------|
B :-10--------------|-----------------|
G :-----------------|-----------------|
D :-----------------|-----------------|
A :-----------------|-----------------|
E :-----------------|-----------------|
   0:38                                0:42
E :------------------|----------------|--------------------|
B :------------------|----------------|--------------------|
G :------------------|----------------|--------------------|
D :--5---3-5-6-------|----------------|--5---3-5-6-5-3-----|
A :------------------|----------------|----------------6---|
E :3---3-------------|----------------|3---3---------------|
                    0:45
E :----------------|--------------------|----------------|
B :----------------|--------------------|----4-----------|
G :----------------|--------------------|------6---------|
D :----------------|--5---3-5-6-5-3-----|6-------7-----6-|
A :----------------|----------------6---|--4-------5-----|
E :----------------|3---3-------------4-|------------2---|
   0:49                 0:51
E :--------------------|------------9-10-11--------------|
B :--------------------|----------9---------11-----------|
G :--------------------|------6-7-------------9-8--------|
D :--5---3-5-6-5-3-----|----6---------------------8------|
A :----------------6---|6-5-------------------------7-6-5|
E :3---3-------------4-|---------------------------------|
   0:53                                  0:56
E :--------------------|----------------|--------------------------------|
B :--------------------|----4-----------|------------------4-------------|
G :--------------------|------6---------|--------------6-7---------------|
D :--5---3-5-6-5-3-----|6-------7-----6-|5---3-5-6-----------8-7-10-9----|
A :----------------6---|--4-------5-----|----------4-5----------------8-7|
E :3---3-------------4-|------------2---|--3-----------------------------|
   0:58
E :-------------------------------|------------------------------|
B :--------8-7---10-9-----8-7-----|------------------------------|
G :-------------------6-7---------|--10-9-----9-7----------------|
D :---9-10--------------------10-9|8------7-6-----5---4------3---|
A :-9-----------------------------|---------------------4------2-|
E :-------------------------------|-----------------------2------|

E :------------------------|
B :------------------------|
G :------------------------|
D :-2----------------------|
A :---1-----6-----5--------|
E :-----0-----5-4----------|
   1:02                                   1:05
E :--------------------------------------|--------------------------|
B :------b13----r---------------------13-|----b11--r--9-h-11p9s8----|
G :-12-----------------12----------------|10------------------------|
D :--------------------------------------|--------------------------|
A :--------------------------------------|--------------------------|
E :--------------------------------------|--------------------------|
   1:08                   1:11                      1:14
E :-----------------------|-------------------------|----------------------|
B :-8---------------------|-------------------------|---b13-r--15-16-------|
G :----8(20)-s5-5-s7--5---|5--h7-p5-s4--s7-7~---0-12|12--------------------|
D :-----------------------|-------------------------|----------------------|
A :-----------------------|-------------------------|----------------------|
E :-----------------------|-------------------------|----------------------|
   1:16                      1:19
E :----------15-h16---15----|-11-13-10----------|
B :---b18-r-----------------|----------8--------|
G :15-----------------------|-------------------|
D :-------------------------|-------------------|
A :-------------------------|-------------------|
E :-------------------------|-------------------|
   1:22                                        1:24
E :10-11-p10p8p7---8p7-------------------|20-----s15-s18-----16-p15|
B :--------------8-----8-----------------|-------------------------|
G :----------------------10--------------|-------------------------|
D :-------------------------10-p8--------|-------------------------|
A :-------------------------------10p8h10|-------------------------|
E :--------------------------------------|-------------------------|
   1:27                   1:29
E :16--------------------|20------------------------------------|
B :-------18-18-s20------|---br18-16----------16----------------|
G :----------------------|-----------17----15----17-17~-------8-|
D :----------------------|--------------17-----------------10---|
A :----------------------|--------------------------------------|
E :----------------------|--------------------------------------|
   1:32  Gradual bend               1:35
E :----------------------------------|----------------------------------------|
B :-----------------------+1---------|-15--16p15p13-15---16p15p13-15---16-s18-|
G :10-10-10-10---10-10-10-b10-~------|----------------------------------------|
D :----------------------------------|----------------------------------------|
A :----------------------------------|----------------------------------------|
E :----------------------------------|----------------------------------------|
   1:38                                          1:40
E :-------------------------------------------18|21----------------18-b19r---|
B :-s20-21p20p18h---20-p21p20p18-20-----20-21---|-------21-p18-21------------|
G :---------------------------------------------|----------------------------|
D :---------------------------------------------|----------------------------|
A :---------------------------------------------|----------------------------|
E :---------------------------------------------|----------------------------|
   1:43
E :-19------19-----19-------22-----22--24-24-|
B :------18----18-(18)---21----21-(21)-------|
G :------------------------------------------|
D :------------------------------------------|
A :------------------------------------------|
E :------------------------------------------|
   1:47                                1:50-1:57
E :-24\0h7p0--------------------------|--------------------------|
B :----------\12-p0----------9-s10----|-10~----------------------|
G :------------------------9----------|--------------------------|
D :----------------------9------------|--------------------------|
A :--------------------7--------------|--------------------------|
E :-----------------------------------|--------------------------|
   2:10               2:13             2:16
E :-----------------|----------------|----------------|
B :-----------------|----------------|-5-----------1--|
G :-----------------|--2-------------|--------5-4-(4)-|
D :2-----s5---------|----------------|----------------|
A :-----------------|----------------|----------------|
E :-----------------|----------------|----------------|
                       2:34
   2:28                |_|_|_|_|_|_|_|_|_|_|_|_|_|_  2:40     | denotes 8th note downbeat
E :-------------------|----------------------------|-0------| _ denotes 8th note upbeat
B :-------------------|-----------------------<5>--|--------|
G :-B14r--------------|--------------------<5>-----|--------|
D :-------------------|---------<5>----------------|--------|
A :-------------------|----------------------------|--------|
E :-------------------|----------------------------|--------|
                       7/4    2:45       x3 2:49            2:50
E :|-----------||---------------|------------------|
B :|-10-8-7----||-8-8-7---------|-10-8-7---10-8-7--|
G :|*-------9-*||-------9-------|--------9--------9|
D :|*---------*||---------------|------------------|
A :|-----------||---------------|------------------|
E :|-----------||---------------|------------------|
   2:53
E :-----------------------------|
B :------------------8-x-10-x---|
G :-7-5-7-9-x-7-x-9-x---------9-|
D :-----------------------------|
A :-----------------------------|
E :-----------------------------|
  2:56                 2:59                  3:03
E :-------------------|----10---------------|5---------------------|
B :12-10-----------10p|8------7--8p7p5\-----|----------------------|
G :------9------------|---------------------|--b7r-p5h7--b4r-----9-|
D :-------------------|---------------------|----------------------|
A :-------------------|---------------------|----------------------|
E :-------------------|---------------------|----------------------|
   3:07                      3:15
E :---------------10---b12r-|----15----17----b17-17r------12-14-|
B :12-10---10p8------8------|/13----13----13--------------------|
G :------9------------------|-----------------------------------|
D :-------------------------|-----------------------------------|
A :-------------------------|-----------------------------------|
E :-------------------------|-----------------------------------|
   3:18                           3:20
E :---15-b14--r------------------|-----15-----------------------|
B :---------------15--------10-12|13-------12-------13-12-10----|
G :------------------14----------|---------------------------12-|
D :------------------------------|------------------------------|
A :------------------------------|------------------------------|
E :------------------------------|------------------------------|
   3:23                      3:26
E :-------------------------|---------------------|
B :10-----------------------|---------------------|
G :-----12-b11r-------------|-----------9-12-11-12|
D :-------------12----14/16\|10-9-10-12-----------|
A :----------------12-------|---------------------|
E :-------------------------|---------------------|
   3:29
E :14-15-17-14-15-14---12-14-15-12-14\----10-12-14-10-12\--8-10-12-8-10\--7-8-10-7--|
B :---------------------------------------------------------------------------------|
G :---------------------------------------------------------------------------------|
D :---------------------------------------------------------------------------------|
A :---------------------------------------------------------------------------------|
E :---------------------------------------------------------------------------------|
   3:31
E :|-8p7---------------------------|
B :|-----10---8p-7h-8--10s12p10----|
G :|-------------------------------|
D :|-------------------------------|
A :|-------------------------------|
E :|-------------------------------|
   |                               |
E :|-8-7---------------------------|  2nd guitar
B :|-----10---15p13h15-17s19p15----|
G :|-------------------------------|
D :|-------------------------------|
A :|-------------------------------|
E :|-------------------------------|
   3:34
E :-14-15-17-14-15-14---12-14-15-12-14\-----10-12-14-10-12\---8-10-12-8-10\---7--8--10-12|
B :--------------------------------------------------------------------------------------|
G :--------------------------------------------------------------------------------------|
D :--------------------------------------------------------------------------------------|
A :--------------------------------------------------------------------------------------|
E :--------------------------------------------------------------------------------------|
  :                                                                                      |
E :-17-19-20-17-19-17---15-17-19-15-17\-----14-15-17-14-15\--12-14-15-12-14\--10-12-14-10|
B :--------------------------------------------------------------------------------------|
G :--------------------------------------------------------------------------------------|
D :--------------------------------------------------------------------------------------|
A :--------------------------------------------------------------------------------------|
E :--------------------------------------------------------------------------------------|
   3:37
E :10--8-10----------19-b22r------|
B :---------------20--------------|
G :------------19-----------------|
D :-------------------------------|
A :-------------------------------|
E :-------------------------------|
  :                               |
E :12----------------19-b22r------|
B :---15-(15)-----20--------------|
G :-------12---19---------------9-|
D :-------------------------------|
A :-------------------------------|
E :-------------------------------|
   3:39                 3:42                 3:45
E :--------------------|------10------------|-----------5--------|
B :12s----10---------10|p8-------7------8-p7|p5---------5--------|
G :----------9---------|--------------------|--------------b7r-p5|
D :--------------------|--------------------|--------------------|
A :--------------------|--------------------|--------------------|
E :--------------------|--------------------|--------------------|
   3:48               3:51                     3:53
E :------------------|------------------------|-------------------------|
B :------------------|12-----10-s13-----------|-------------------------|
G :7----b4r---------9|-------------------16-14|12----14s-16-14----------|
D :---------7--------|------------------------|--------------------17-16|
A :------------------|------------------------|-------------------------|
E :------------------|------------------------|-------------------------|
   3:56
E :------------------------------------------------24-24-20-20---------|
B :------------------------------------22-22-20-20---------------------|
G :------------------------21-21-19-19---------------------------------|
D :14----------19-19-17-17---------------------------------------------|
A :------17-17---------------------------------------------------------|
E :--------------------------------------------------------------------|
   3:59                                4:01
E :22----b19-r------------------------|--------------------|
B :-----------20----------------------|---------b15--------|
G :--------------19-17-16-17-19--17-16|14----12------------|
D :-----------------------------------|--------------------|
A :-----------------------------------|--------------------|
E :-----------------------------------|--------------------|
   4:04                        4:07
E :---------------------------|--------b15--15r------|
B :b15--b15r-p13-15-----------|----------------------|
G :----------------------17-16|14--12----------------|
D :---------------------------|----------------------|
A :---------------------------|----------------------|
E :---------------------------|----------------------|
  4:10
E :15------------------|
B :-------b15-r--------|
G :--------------------|
D :--------------------|
A :--------------------|
E :--------------------|
    4:12                            4:15
E :|-------------------------------|--------------------------15-17-14----|
B :|--10-----8---7---------10---8--|-7-----8-10---------13-15----------15-|
G :|*----9-----9---7-9---9----9---9|---7--------9----12-------------------|
D :|*------7-----------7-----------|-----7--------10----------------------|
A :|-------------------------------|--------------------------------------|
E :|-------------------------------|--------------------------------------|
   4:18
E :-----------------------------|
B :10-----8---7---------10---8--|
G :---9-----9---7-9---9----9---9|
D :-----7-----------7-----------|
A :-----------------------------|
E :-----------------------------|
   4:20
E :---------------12-14-15-17-12-15-14------------------------------ 2|
B :---------15-13----------------------15----13-12-10--------------- ||
G :11-12-14-------------------------------14----------12-11-9-------*||
D :-----------------------------------------------------------12-10-*||
A :----------------------------------------------------------------- ||
E :----------------------------------------------------------------- ||
     4:34                          4:37
    :-----------------------------|-----------------------------|
    :------------------------(C)--|-----------------------------|
    :------------------------A.H.-|-------------------------7\--|
    :-----5---3-----2-----3---3---|-----7---5-----4-----5-------|
    :---3---3---3-----3-----3-----|---5---5---5-----5-----5-----|
    :-1-----------1-----1---------|-3-----------3-----3---------|
    P.M. all (only G on D string)  P.M. all (only A on D string)
   4:39                         4:42
E :---------------------------|---------------------------|
B :---------------------------|-------------------------8-|
G :-------------------------5-|-----2---4-----6---7-------|
D :-----5---3-----2-----3-----|-----------------------5---|
A :---3---3---3-----3-----3---|---5---5---5-----5---------|
E :-1-----------1-----1-------|-3-----------3-------3-----|
   P.M. all                    P.M. all except G and B string
                     5:04
   4:45                 |_|_|_|_|_|_|_|_|_|_|_|_  <-- | denotes 8th note downbeat
E :----------------||----------------------------|    _ denotes 8th note upbeat
B :----------------||*----------------7-8-------*|
G :-2--------------||-----8-9-------9------------|
D :-2--------------||*--7-------------4-5-------*|
A :-0--------------||-----6-7-------7------------|
E :----------------||---5------------------------|                     12/4
   5:13
    |_|_|_|_|_|_|_|_|_|_|_|_
E :--------------------------------|
B :----------7----7-8----8-10------|
G :--------9-----------------------|
D :----------4----4-5----5-7-------|
A :--------7-----------------------|
E :--------------------------------|
  12/45:18
 | _ | _ | _ | _ | _ | _ | _ | _ | _ | _ | _ | _     <-- spaces wider for clarity
----------------------------------------------------|
-------------------7---8-----10--12----13--14-------|
---------------9------------------------------------|
-------------------4---5-----7---9-----10--11-------|
---------------7------------------------------------|
----------------------------------------------------|12/4
  5:22
    |_|_|_|_|_|_|_|_|_|_|_|_
E :--------------------------------|
B :----------7----7-8--8-10--------|
G :--------9-----------------------|
D :----------4----4-5--5-7---------|
A :--------7-----------------------|
E :--------------------------------|   12/4
  5:27
    | _ | _ | _ | _ | _ | _ | _ | _ | _ | _ | _ | _
E :--------------------------------------------------|
B :-------------------------7-8-10----12--13--14-----|
G :---------------8---9-----------------------12-----|
D :-------------------------4-5-7-----9---10--11-----|
A :---------------6---7------------------------------|
E :--------------------------------------------------|   12/4
 5:32      5:36
:---------|-----------------------------|
:-(14)----|------------------------(G#)-|
:-(12)----|------------------------A.H.-|
:-(11)----|----1-2-------2-4-5---1-2----|
:---------|-0-------3-4-----------------|
:---------|-----------------------------| 12/4
    5:41
E :|--------------------------|-----------------------------2|
B :|--------------------------|-----------------------------||
G :|*-------------------------|----------------------------*||
D :|*-------------------------|-----4---5------------------*||
A :|-----6---7-----3---4------|-7---------7---6---7---------||
E :|-5-0---5---5-0---5---5-0--|---5---5-----5---5---5-0-----||     P.M. all
    5:50
E :|----------------------------|----------------------------2|
B :|----------------------------|----------------------------||
G :|*---------------------------|---------------------------*||
D :|*---------------------------|-----4---5-----------------*||
A :|------6---7-----3---4-------|-7---------7---6---7--------||
E :|--5-0---5---5-0---5---5-0---|---5---5-----5---5---5-0----||    No P.M.
     6:00                                   6:10  2nd guitar
E :|-----------------|-----------------2||-----------------------|
B :|-----------------|-----------------|||--------(G#)-----------|
G :|*----------------|----------------*|||*-------A.H.------(F)--|
D :|*--------------3-|----------------*|||*---1-2|2---------A.H.-|
A :|--5----------3---|5----------3-----|||--0---------0-3-4|4----|
E :|-----2-3-4-5-----|---2-3-4-5-------|||-----------------------|
                      6:19                           (E)
E :------------------2|-----------------|------------A.H.-|
B :-------------(C)--||-----------------|-\5-7-8---4-5----|
G :-------------A.H.*||---------5-6/----|-----------------|
D :-2-4-5---1-2|2---*||---1-2-----------|--------7--------|
A :-------0----------||-0-----0---------|-----------------|
E :------------------||-----------------|-----------------|
  6:24
E :------------------|-----------------------|
B :-3-4-5---5--7--8--|12-11-10-------9-------|
G :------------------|---------11-12---------|
D :------------------|-----------------------|
A :------------------|-----------------------|
E :------------------|-----------------------|
  :                  |                       |
E :17-16-15-12-------|12-14-15---------------|
B :------------13-14-|---------14-16-17------|
G :------------------|-----------------------| Second guitar
D :------------------|-----------------------|
A :------------------|-----------------------|
E :------------------|-----------------------|
  :                  |                       |
E :17-16-15----------|---------14-15-16------|
B :---------17-16-14-|12-14-15---------------|
G :------------------|-----------------------| Third guitar
D :------------------|-----------------------|
A :------------------|-----------------------|
E :------------------|-----------------------|
   6:28
E :-----------------------------------------------------------------------|
B :-------10-13p10-----12----10----------------------------10-------------|
G :-10h11----------12-----12----13-12-11-10-------------------------------|
D :-----------------------------------------12-11-10-11-12----12-11-10-11-|
A :-----------------------------------------------------------------------|
E :-----------------------------------------------------------------------|

E :-------------------------------10---------|
B :-----------------10-11-12-13-------13-b13-|
G :-----10-11-12-13--------------------------|
D :-12---------------------------------------|
A :------------------------------------------|
E :------------------------------------------|
   6:32
E :-10---------------------10--------------10-------------10---------------|
B :-----13-p10----13----------13-p10-h13------13-p10-h13-----13-p11--------|
G :-----------------------------------------------------------------12-p10-|
D :------------------------------------------------------------------------|
A :------------------------------------------------------------------------|
E :------------------------------------------------------------------------|

E :----10--------|b13-10---------------------------------|
B :b13----13-p10-|-------13-p10--------------------------|
G :--------------|--------------b12r-p10-----------------|
D :--------------|-----------------------12-p10----------|
A :--------------|------------------------------10-p8----|
E :--------------|---------------------------------------|
    b3                           6:38                   Hold bend
E :----------------------------|-----------------------------------------|-b17-~---------------|
B :----------------------------|-----------10-s13-b15--b17-18-17-r17-15--|---------------------|
G :-b14r-p12----12-10~---------|--------10-------------------------------|---------------------|
D :----------15----------------|-----------------------------------------|---------------------|
A :----------------------------|--10h12----------------------------------|---------------------|
E :----------------------------|-----------------------------------------|-------16\-----------|
   6:44                b3
E :------------------------------------------------------------|
B :------------------------------------------------------------|
G :-7p5--7p5--7p5--7p5-b7---7p5--------------------------------|
D :------------------------------7p5-------3-------------------|
A :-----------------------------------5h8-----5p3h5---3--------|
E :------------------------------------------------------4p3-1-|
   6:49
E :--------------------------------------------------------------------------|
B :--------------------------------------------------------------------------|
G :--------------------------------------------------------------------------|
D :---------------------------------------------------9-10-11-12--9-10-11-12-|
A :------------------------------7-8-9-10--9-10-11-12------------------------|
E :--5-6-7-8--7-8-9-10--7-8-9-10---------------------------------------------|

E :-----------------------------------------------12-13-14-15--14-15-17-----|
B :-------------------------12-13-15--12-13-14-15---------------------------|
G :-9-10-11-12--11-12-13-14-------------------------------------------------|
D :-------------------------------------------------------------------------|
A :-------------------------------------------------------------------------|
E :-------------------------------------------------------------------------|

E :12-13-14-15--14-15-17--16-17-18-19--14-15-17--16-17-18-19--17-18-19--20-19-17-|
B :------------------------------------------------------------------------------|
G :------------------------------------------------------------------------------|
D :------------------------------------------------------------------------------|
A :------------------------------------------------------------------------------|
E :------------------------------------------------------------------------------|

E :-------------------------------------15-------17----17----------------------------|
B :20-18-17-----------------------------15^---------20^---17~---------17----------10-|
G :---------19--17-------------------------------------------------19^---17----12^---|
D :----------------19-17-------------------------------------------------------------|
A :----------------------19-17-\12---------------------------------------------------|
E :----------------------------------------------------------------------------------|

E :------------------------------------------|
B :-----------------10-----------------------|
G :--------------11^---12-/14----p12-/-------|
D :b12-r---10--------------------------------|
A :------------------------------------------|
E :------------------------------------------|
   7:04                                               A
E :-----------------------------------------------------------|
B :b15-r13----------------------------------------------------|
G :--------s-8-p6---------------------------------------------|
D :----------------7-p5---------------------------------------|
A :---------------------6-p-4---------------3--4---5-<-5>b----|
E :----------------------------5-p-3-----5--------------------|
    7:07
E :---------------------|------------------|-------------------|
B :-10\--------x-10-----|--x-xxx10\--------|--x-xxx10----------|
G :-10\--------x-10-----|--x-xxx10\--------|--x-xxx10----------|
D :-----------------12\-|------------------|----------12\------|
A :---------------------|------------------|-------------------|
E :---------------------|------------------|-------------------|
    7:16
E :|----------------------------|----------------------2|
B :|-----13----13-----10\-------|-xxx-x-xx-10-10-------||
G :|*----10----10-----10\-------|-xxx-x-xx-10-10------*||
D :|*---------------------------|----------------12\--*||
A :|----------------------------|----------------------||
E :|--13----13----13------------|----------------------||

E :--------------------------||----------------------------|
B :----13-----13-------------||----------------------------|
G :----10----b12r-10---------||*---------------------------|
D :--------------------------||*---------------------------|
A :--------------------------||------6---7-----3---4-------|
E :-13----13-----------------||--5-0---5---5-0---5---5-0---|
                                   7:46
E :----------------------------4||-17-12-------15-12------------|
B :----------------------------|||-------15-12-------15-12------|
G :---------------------------*|||*------------------------14-12|
D :----4---5------------------*|||*-----------------------------|
A :7---------7---6---7---------|||------------------------------|
E :--5---5-----5---5---5-0-----|||------------------------------|
   7:47                          7:48
E :-----------------------------|---------------------|
B :15-12-------13-12------------|12-8-----10-8--------|
G :------14-12-------14-12------|-----9-7------9-7----|
D :------------------------14-12|------------------9-7|
A :-----------------------------|---------------------|
E :-----------------------------|---------------------|
   7:49                  7:50
E :---------------------|--------------------------------------|
B :---------------------|-------------------------------8-10-12|
G :11-7-----9-7---------|------------------------7-9-11--------|
D :-----9-7-----9-7-----|10-7-9-7---------7-9-10---------------|
A :-----------------10-7|---------10-7-10----------------------|
E :---------------------|--------------------------------------|   1st ending

E :------------------------------------------------1|
B :----------------------10------------------------||
G :7--9-11-12-b12r-11-12-------9------------12----*||
D :-------------------------12---10-10-12-9-------*||
A :------------------------------------------------||
E :------------------------------------------------||
   8:03                                            8:14
   2nd ending                                      3rd ending.Piano 2 bars
E :---------14-15-17b-b--s20-19-17-15-17-19-17--1|--------------|-------------|
B :15----15-------------------------------------||--------------|-------------|
G :---14---------------------------------------*||-7------------|-------------|
D :--------------------------------------------*||--------------|-------------|
A :---------------------------------------------||--------------|-------------|
E :---------------------------------------------||--------------|-------------|
                                                  4/4            4/4
   8:17          8:22
E :-----------|--------------------------------------3|
B :-----------|--------------------------------------||
G :-----------|*------------------------------------*||
D :-----------|*--------------------------5-------4-*||
A :-----------|--3-3-3-3--6-3-3-3--5-3-3----3-3-3----||
E :-----------|--------------------------------------||
   10/4          P.M. except on G and F#
E :---------------------------------------2|
B :---------------------------------------||
G :--------------------------------------*||
D :-------6--------4---------------------*||
A :-3-3-3----3-3-3----3-3-3-5--3-3-3-6----||
E :---------------------------------------||    P.M. except on G# and F#
   8:40
   Tacet 4 bars 4/4      8:49
E :----|----|----|----|--------------------------------------2|
B :----|----|----|----|--------------------------------------||
G :----|----|----|----|*-5-5-5-5--5-5-5-5--5-5-5-5--5-5-5-5-*||
D :----|----|----|----|*------------------------------------*||
A :----|----|----|----|--------------------------------------||
E :----|----|----|----|--------------------------------------||
                          light distortion P.M. G-string throughout
    8:54                                 8:56
E :------------------------------------|---------------------------------------|
B :---------------------4--------------|---6-----------------8--------6--------|
G :-5-5-5-5--5-5-5-5--5---5-5--5-5-5-5-|-5---5-5--5-5-5-5--5---5-5--5---5-5----|
D :------------------------------------|---------------------------------------|
A :------------------------------------|---------------------------------------|
E :------------------------------------|---------------------------------------|
               8:59
E :---------|--------------------------------------2|
B :---------|-------------------------------4------||
G :-5-5-5-5-|*-5-5-5-5--5-5-5-5--5-5-5-5--5---5-5-*||
D :---------|*------------------------------------*||
A :---------|--------------------------------------||
E :---------|--------------------------------------||
   9:03                         9:05
E :---------------------------|------------------------------------|
B :---------------------------|---6-----------------7------8-8-8-8-|
G :-5-5-5-5--5-5-5-5--5-5-5-5-|-5---5-5--5-5-5-5--5---5-5--5-5-5-5-|
D :---------------------------|------------------------------------|
A :---------------------------|------------------------------------|
E :---------------------------|------------------------------------|
    9:07                                 9:09
E :------------------------------------|------------------------------------|
B :-8-8--------------------------4-----|------------------------------6-----|
G :-5-5-5-5--5-5-5-5--5-5-5-5--5---5-5-|-5-5-5-5--5-5-5-5--5-5-5-5--5---5-5-|
D :------------------------------------|------------------------------------|
A :------------------------------------|------------------------------------|
E :------------------------------------|------------------------------------|
    9:12
E :------------------------------------|
B :-6-6------6-6-6-6--7-7-7-7--8-8-8-8-|
G :-5-5-5-5--5-5-5-5--5-5-5-5--5-5-5-5-|
D :------------------------------------|
A :------------------------------------|
E :------------------------------------|
    9:14                                 9:16
E :------------------------------------|------------------------------------|
B :-8-8-8-8--8-8-8-8--8-8-8-8--8-8-8-8-|-x-7-7-7--7-7-7-7--7-7-7-7--7-7-7-7-|
G :-5-5-5-5--5-5-5-5--5-5-5-5--5-5-5-5-|------------------------------------|
D :------------------------------------|------------------------------------|
A :------------------------------------|------------------------------------|
E :------------------------------------|------------------------------------|
    9:18                                 9:21
E :------------------------------------|------------------------------------|
B :-x-9-9-9--9-9-9-9--9-9-9-9--9-9-9-9-|-x-6-6-6--6-6-6-6--6-7-7-7--7-7-7-7-|
G :------------------------------------|------------------------------------|
D :------------------------------------|------------------------------------|
A :------------------------------------|------------------------------------|
E :------------------------------------|------------------------------------|
    9:23                                 9:25
E :------------------------------------|------------------------------------|
B :-8-8-8-8--8-8-8-8--8-8-8-8--8-8-8-8-|-x-7-7-7--7-7-7-7--7-7-7-7--7-7-7-7-|
G :-5-5-5-5--5-5-5-5--5-5-5-5--5-5-5-5-|-x----------------------------------|
D :------------------------------------|------------------------------------|
A :------------------------------------|------------------------------------|
E :------------------------------------|------------------------------------|
    9:27                                 9:30
E :------------------------------------|-------------------------------------|
B :-7-6-6-6--6-6-6-6--6-6-6-6--6-6-6-6-|-x-9-9-9--9-9-9-9--x-7-7-7--7-7-7-7--|
G :------------------------------------|-------------------------------------|
D :------------------------------------|--------------------------------1-/--|
A :------------------------------------|-------------------------------------|
E :------------------------------------|-------------------------------------|
   9:32                             9:41
E :----|--------|------------|----|-----|-------|-----------|----------|
B :----|--------|------------|----|-----|-------|-----------|----------|
G :----|--------|------------|----|-s12-|-14-15-|-(15)--s12-|--s14-s12-|
D :-5/-|-s10-12-|-10-s12-s13-|-13-|-----|-------|-----------|----------|
A :----|--------|------------|----|-----|-------|-----------|----------|
E :----|--------|------------|----|-----|-------|-----------|----------|
   4/4  4/4       4/4         7/8   4/4  4/4      4/4         7/8
    9:49                                9:58                         10:05
E :-------|----------|----------|-----|-15--|----s17-s18-s20-|-s22-~|-(22)-|
B :-13-s8-|-8-s13-15-|-13s15-13-|-16~-|-----|----------------|------|------|
G :-------|----------|----------|-----|-----|----------------|------|------|
D :-------|----------|----------|-----|-----|----------------|------|------|
A :-------|----------|----------|-----|-----|----------------|------|------|
E :-------|----------|----------|-----|-----|----------------|------|------|
   4/4      4/4        4/4       7/8   4/4    4/4              4/4   4/4
   10:07                             10:12
E :-----|-----------|--------------|--------|-----------|-----------|------|
B :-13~-|-15-16-h18-|-18~----16-15-|-13-b15-|-(15)--b15-|--r15------|------|
G :-----|-----------|--------------|--------|-----------|-------b14-|-(14)-|
D :-----|-----------|--------------|--------|-----------|-----------|------|
A :-----|-----------|--------------|--------|-----------|-----------|------|
E :-----|-----------|--------------|--------|-----------|-----------|------|
   4/4
                       10:24                                             tr
:-----|-----|---------|-18--16-15-|---16-b15-r---|-----------|---------|-----------|
:-b13-|-r13-|---15-16-|-----------|-----------16-|-(16)-b15r-|-(15)----|-13(15)-12-|
:-----|-----|---------|-----------|--------------|-----------|------14-|-----------|
:-----|-----|---------|-----------|--------------|-----------|---------|-----------|
:-----|-----|---------|-----------|--------------|-----------|---------|-----------|
:-----|-----|---------|-----------|--------------|-----------|---------|-----------|
   10:34
E :-15-11-13----11----------------------15----------------------------15----|
B :----------15----13-15-13-------16-18----15----------15-16----18----------|
G :-------------------------12-17-------------15----15-------15----15----15-|
D :----------------------------------------------17-------------------------|
A :-------------------------------------------------------------------------|
E :-------------------------------------------------------------------------|
  :                                                                         |
E :-15-11-13----11-------------------15-18-15----------15-15----16----18----|
B :----------15----13-15-13-------16----------15----15-------16----16----16-| 2nd guitar
G :-------------------------12-17----------------15-------------------------|
D :-------------------------------------------------------------------------|
A :-------------------------------------------------------------------------|
E :-------------------------------------------------------------------------|
   10:37
E :------------------------------------16---------------------------------|
B :18-15-16----15----------------15-18----18----------18-------------18---|
G :---------17----15-17-15----15-------------17----17----19-17-20-17----19|
D :------------------------15-------------------18------------------------|
A :-----------------------------------------------------------------------|
E :-----------------------------------------------------------------------|
  :                                                                       |
E :------------------------------------20-16----------16-------------16---|
B :18-15-16----15----------------15-18-------18----18----18-16-20-16----18|
G :---------17----15-17-15----15----------------17------------------------|
D :------------------------15---------------------------------------------|
A :-----------------------------------------------------------------------|
E :-----------------------------------------------------------------------|
   10:41
E :----------------------------------------------------------------------|
B :----------------18-20-21-20-------20-18-16----------------------------|
G :-20-19-17-19-20-------------17-20----------19-19-17-19-14-14----------|
D :-------------------------------------------------------------16-16----|
A :-------------------------------------------------------------------18-|
E :----------------------------------------------------------------------|
   10:43
E :-------------14-17-p14-------------------------------15-19-p15----------|
B :----------15-----------15-------------------------15-----------15-------|
G :-------14-----------------14-------------------16-----------------16----|
D :----16-----------------------16-------------17-----------------------17-|
A :-17-----------------------------17-------17-----------------------------|
E :-----------------------------------14-15--------------------------------|

E :-----------------------------------------------------------------------|
B :------------------------20-18-16--20-18-16-----------------------------|
G :------------------19-----------------------19-17-16--19-17-16----------|
D :---------17----17----17---------------------------------------18-17-15-|
A :17----------17---------------------------------------------------------|
E :---15-15---------------------------------------------------------------|
                                  10:48
                                  Tacet 4 bars
E :------------------------------|------------|
B :------------------------------|------------|
G :------------------------------|------------|
D :-18-17-15---17-18-17-15-------|------------|
A :------------------------17-15-|------------|
E :------------------------------|------------|
     11:01                  1.2.3.    1.2.
E :|------------------------------4||----------------------------------4|
B :|------------------------------|||----------------------------------||
G :|*-------------------------8--*|||*-x-8-8-x-8-8-x-8-8--x-10-~------*||
D :|*-10-10--10-10--10-10--10-8--*|||*-x-8-8-x-8-8-x-8-8--x-10-~------*||
A :|--10-10--10-10--10-10--10-----|||----------------------------------||
E :|------------------------------|||----------------------------------||
   11:28  1.2.                                              11:34
E :----------------|-----------------|-------------|-------|---------|
B :----------------|-----------------|-------------|-------|---------|
G :-0-3-3----------|-0-0-3-0-5-3-0---|-3-3-3-------|-------|---0-3---|
D :-0-3-3-5--------|-0-0-3-0-5-3-0---|-3-3-3-5-5\--|-(5\)--|---0-3-5-|
A :-------5--------|-----------------|-------5-5\--|-(5\)--|-------5-|
E :----------------|-----------------|-------------|-------|---------|
                                          11:41   11:44    Repeat from 11:01
E :----------------------|---------------|------|-----------------------||
B :----------------------|---------------|------|-----------------------||
G :-3---3------3-0-5-3-0-|---3---3-------|------|----------------------*||
D :-3-5-3-5----3-0-5-3-0-|-5-3-5-3-5-----|------|---------------1-------||
A :---5---5--------------|-5---5---5-5-4-|-3----|---------0-1-2--------*||
E :----------------------|-----------3-2-|-1--0-|-1-2-3-4---------------||
   12:41   Third time
E :--------------------------------------|
B :--------------------------------------|
G :--------------------------------------|
D :-------------------------5--\---------|
A :-------------6--5---5----3--\---------|
E :-3--2--1--0-------4---3---------------|
   12:50
E :-----------------------------------------|-----------------------------|
B :-------------------3---------------------|-------------------3---------|
G :-----------------4---5-------------------|-----------------4---5-------|
D :-----3---4---5---------------3---4-5-----|-----3---4---5---------------|
A :-6-3---3---3---3-------3-6-3---3---------|-6-3---3---3---3-------3-6-3-|
E :-------------------------------------3-3-|-----------------------------|

E :------------------------|-----------------------------------------|-----------|
B :------------------------|-------------------3---------------------|-----------|
G :------------------------|-----------------4---5-------------------|-----------|
D :3---4---5--4--3-------0-|-----3---4---5---------------3---4-5-----|-----3---4-|
A :--3---3----------1--2---|-6-3---3---3---3-------3-6-3---3---------|-6-3---3---|
E :------------------------|-------------------------------------3-3-|-----------|
                                                          13:12
                                                          Tacet 1 bar
E :-----------------------------------------------------|------------|
B :--------3--------------------------------------------|------------|
G :------4---5------------------------------------------|------------|
D :--5---------------3---4---5-4-3-----0-----------1-5\-|------------|
A :3---3-------3-6-3---3---3-------1-2---------1-2---3\-|------------|
E :--------------------------------------1-2-3----------|------------|
                                                         3/4
   13:15                 13:19                      13:24
E :----------------|----|--------------------|----|---------------|----|
B :----------------|----|--------------------|----|---------------|----|
G :----------------|----|--------------------|----|---------------|----|
D :-------------5\-|----|-3-4-5-3-4-5-----5\-|----|-5-4-3-------5\|----|
A :-------1---2-3\-|----|-----------------3\-|----|-------------3\|----|
E :-1-2-3---2------|----|-------------3-3----|----|-------1-2-3---|----|
   13:29
E :-------------------------------|
B :-------------------------------|
G :-----------------------5-4-3-5-|
D :---------------0-1-3-4---------|
A :---------1-2-3-----------------|
E :---1-2-3-----------------------|
   13:31                                         1/4 1/4  1/4
E :------------------------------------------------------------|
B :---------------3--------------------------------------------|
G :--------3-4-5----b-5-----x--3-----------------3b--3b---3b~--|
D :--3-4-5------------------------5-----3--4--5----------------|
A :------------------------------------------------------------|
E :------------------------------------------------------------|
   13:36
E :-------------------------------9p8p6--8----6h7----------|
B :-----------------------------------------8------8----6--|
G :--------------------------------------------------7-----|
D :-5p3--5p3-----------------------------------------------|
A :-----------4-1-3-1--------------------------------------|
E :--------------------3b---r------------------------------|

E :-------------------------------------------------------------|
B :-------------------------------------------------------------|
G :---b5r-p3----3h4---------------------------------------------|
D :----------5------5---3---------------------------------------|
A :-------------------5----4-3-2-1-3----------------------------|
E :-------------------------------------b6---s8-b----11b---b13--|
   13:45
E :-----------------------------------------------17----15-h16-p15-------|
B :-----------------------------------------15-17----17------------17----|
G :----------------14----13----12-h13----16---------------------------16-|
D :----------14-12----12----14-------------------------------------------|
A :-------14-------------------------------------------------------------|
E :-12-15----------------------------------------------------------------|

E :------------------------------------------------------------------------|
B :15-17----15-17-\14-/15-\12-/14-\10-10-\-9----10-11-12-9-----------------|
G :--------------------------------------------------------11--9-----------|
D :-----------------------------------------------------------------11-\-9-|
A :------------------------------------------------------------------------|
E :------------------------------------------------------------------------|

E :-----------------------------------------------------------------------|
B :-------b-8-----9-------------------------------------------------------|
G :---------------------7-------------------------------------------------|
D :p-7---------------9-----9-\-7--5--7--x--5-h-6-----------------5-b----5-|
A :-----------------------------------------------7-----5--6--7-----------|
E :--------------------------------------------------7--------------------|

E :----------------------------3------------------------------------------|
B :--------------------------5---5-3-------3-----------------------3-b----|
G :----------------------------------4-2-0---4-2-0-----2-0---------3-b----|
D :b----5-b----------------------------------------2-0-----2-0----------5-|
A :---------7-p5-----------------------------------------------2-0--------|
E :--------------6-p5-p3-x------------------------------------------------|

E :-----------------------------------------------15----15----15----15-|
B :-------------------------------------------18b----------------------|
G :----------15-17---15--------------------15--------18~---18~---18~---|
D :p3---5-/-------------17-\--12-------/17-----------------------------|
A :---------------------------13---------------------------------------|
E :------------------------------15-13---------------------------------|

E :------------------------|
B :------------------------|
G :p17-p15-17-15-----------|
D :--------------17-p15----|
A :---------------------17-|
E :------------------------|
   14:04
E :-------------------------------------------------------------------------------|
B :-------------------------------------------------------------------------------|
G :-------------------------------------------------------------------------------|
D :--------------------------------------------------15------------------15-16-17-|
A :----------13------------------13-15-14---15-16-17----17-16---15-16-17----------|
E :-13-14-15----15-14---13-14-15--------------------------------------------------|

E :---------------------------------------------------------------------------------|
B :---------------------------------------------------------------------------------|
G :----------15------------------17------------------15------------------17---------|
D :-15-16-17----17-16---15-16-17----17-16---15-16-17----17-16---15-16-17----17-16---|
A :---------------------------------------------------------------------------------|
E :---------------------------------------------------------------------------------<

E :-------15------------------------------------------16-17-18-19---------|
B :-18-b-----18--17-15-h17-p15------15-17-18-20---/20-------------17------|
G :------------------------------18---------------------------------------|
D :-----------------------------------------------------------------------|
A :-----------------------------------------------------------------------|
E :-----------------------------------------------------------------------|

E :-19---------16---------16------12------12--------------------------------|
B :-----17-\15----15-\12-----15-------15~-----------------------------------|
G :-------------------------------------------15-p14-p12-----12-h13---------|
D :------------------------------------------------------14---------14------|
A :--------------------------------------------------------------------14-\-|
E :-------------------------------------------------------------------------|

E :-----0---------------------------------|
B :---0---3-p0----------------------------|
G :2b------------b2r-p0----2----------0---|
D :---------------------2-----2--2-0----2-|
A :---------------------------------------|
E :---------------------------------------|
 14:17
E :-12-17-12----12-15-17-15-12-----12-15-17-15-12----12-15-17--|
B :----------15----------------15-----------------15-----------|
G :------------------------------------------------------------|
D :------------------------------------------------------------|
A :------------------------------------------------------------|
E :------------------------------------------------------------|

E :-19-15-----15-17-19-17-15----15-17-19-17-15----15-17-19---|
B :-------17-----------------17----------------17------------|
G :----------------------------------------------------------|
D :----------------------------------------------------------|
A :----------------------------------------------------------|
E :----------------------------------------------------------|

E :-21-17----17-19-21-19-17----17-19-21-19-17----17-19-21--|
B :-------19----------------19----------------19-----------|
G :--------------------------------------------------------|
D :--------------------------------------------------------|
A :--------------------------------------------------------|
E :--------------------------------------------------------|

E :-24-19----19-22-24-22--19-----19-22--24~---|
B :-------22-----------------22---------------|
G :-------------------------------------------|
D :-------------------------------------------|
A :-------------------------------------------|
E :-------------------------------------------|
   14:23                                                    14:30
E :-------------------------------------------------------|--------------------------------|
B :-------------------------------------------------------|--------------------------------|
G :-------------------------------------------------------|--------------------------------|
D :----4-5--------5-7-8---4-5-------4-5-------5-7-8---4-5-|--5-6-----6--5--4----3----------|
A :-3-------5-6-----------------3--------5-6--------------|------4-----------------6-----5-|
E :-------------------------------------------------------|--------3----------4-------4----|
                                                                              P.M the rest
   14:32
E :--------------------|---------------------|----------------|----------11-10---------|
B :--------------------|------------------12-|-13-10-10-11b-r-|-11----11-------12------|
G :-5--7h8-7---8-10-12-|-13-12-h13-p12-10----|----------------|----12-------------12-10|
D :--------------------|---------------------|----------------|------------------------|
A :--------------------|---------------------|----------------|------------------------|
E :--------------------|---------------------|----------------|------------------------|
   14:41                                                     14:48
E :-----------------------|------------|-------------------|-------------|
B :------------------13---|------------|-------------------|-------------|
G :-8-10-12-13p12h13------|-12-13-12-7-|-10-8h10p8s7-5-7-5-|-5-4-4-------|
D :-----------------------|------------|-------------------|-------5-5---|
A :-----------------------|------------|-------------------|-------------|
E :-----------------------|------------|-------------------|-------------|
   14:50                                       14:52
E :-8-------8-10-11-8-10----------10-11-13-10-|-11----------11-13-15-11-13-|
B :---9---9--------------11----11-------------|----11----11----------------|
G :-----8-------------------10----------------|-------12-------------------|
D :-------------------------------------------|----------------------------|
A :-------------------------------------------|----------------------------|
E :-------------------------------------------|----------------------------|
                          14:55
E :---------13-16-15-13-|-------------------------------15-16-15-------------|
B :15----15-------------|-20-18-16-18-16-15----15-16-18----------18-16-15----|
G :---16----------------|-------------------17----------------------------17-|
D :---------------------|----------------------------------------------------|
A :---------------------|----------------------------------------------------|
E :---------------------|----------------------------------------------------|
                             14:58
E :------------------------|-------------------15-------------15----------------|
B :------------------------|----------------16----16-------------15-------------|
G :15----------------------|-------------15----------15-------------15----------|
D :---18-17-15-------------|----------17----------------17-------------17-------|
A :------------18-17-15-13-|-15-17-18----------------------18-------------17----|
E :------------------------|-------------------------------------------------15-|
   14:59
E :-------------------------------------------------|-------------------11-|
B :-------------------------------------------------|----------------13----|
G :-------------------------------------12----12-13-|-12----------12-------|
D :----------------------12-13-12-13-15----15-------|----13----13----------|
A :----------13-15-13-15----------------------------|-------15-------------|
E :-16-15-16----------------------------------------|----------------------|
                                15:04               15:06
E :15-13-------------------13-|-------------------|-------------------------------15-16-15-13-15-|--16-19-20-22b--r-\--|
B :------15-------------15----|-16-15--15tr16--13-|-13-12-10-12--15-16-15-13-15------------------|---------------------|
G :---------15-------17-------|-------------------|----------------------------------------------|---------------------|
D :------------15-17----------|-------------------|----------------------------------------------|---------------------|
A :---------------------------|-------------------|----------------------------------------------|---------------------|
E :---------------------------|-------------------|----------------------------------------------|---------------------|
   15:11                      15:!4
E :-------------------------|---------------------------------|
B :-------------------------|-----------------------------3-4-|
G :-------------------------|---------------------3---3-5-----|
D :-----------3---3-5-3-----|-----------3---3-5-6---6---------|
A :-3-5-6-5-6---6-------6-5-|-3-5-6-5-6---6-------------------|
E :-------------------------|---------------------------------|
   15:19
E :----------------------------|
B :-----------------------4-3--|
G :----------------------------|
D :-----------3-5-3------------|
A :-3-5-6-5-6-------6-5-6------|
E :----------------------------|
   15:22                                        15:28
E :--------------------------------------------|-------------------------|
B :--------------------------------------------|-------------------------|
G :--------------------2-3-2-------------------|-------------------------|
D :-----------------5--------5-3---------------|------------------5-3----|
A :-----------3---5--------------6------3------|-3--5--6--------------6-5|
E :3-5-6-5--6---6------------------5--6---6-5-3|----------1-3-4-2--------|
   15:34                     15:41
E :-------------------------|--------------------|
B :-------------------------|--------------------|
G :-------------------------|--------------------|
D :------------------5-3----|------6-4-3-1-0-----|
A :3--5--6---------------6-5|3-5-6-----------3-1-|
E :--------1--3--4-2--------|--------------------|
    15:47                  15:49
E :|----------------------|----------------|
B :|----------------------|-----4----------|
G :|*---------------------|-------6--------|
D :|*---5---3-5-6-5-3-----|-6-------7------|
A :|------------------6---|---4-------5---6|
E :|--3---3-------------4-|-------------2--|
   15:51                15:52
E :--------------------|-------------9-10-11----------------|
B :--------------------|-----------9---------11-------------|
G :--------------------|-------6-7--------------9-8---------|
D :--5---3-5-6-5-3-----|-----6----------------------8-------|
A :----------------6---|-6-5--------------------------7-6-5-|
E :3---3-------------4-|------------------------------------|
   15:54                 15:56
E :---------------------|-----------------|
B :---------------------|-----4-----------|
G :---------------------|-------6---------|
D :---5---3-5-6-5-3-----|-6-------7-------|
A :-----------------6---|---4-------5---6-|
E :-3---3-------------4-|-------------2---|
   15:58                              15:59
E :----------------------------------|------------|
B :-------------------4--------------|--------8-7-|
G :---------------6-7----------------|------------|
D :-5---3-5-6-----------8-7-10-9-----|---9-10-----|
A :-----------4-5----------------8-7-|-9----------|
E :---3------------------------------|------------|
                      16:01                                      x2
E :------------------|-------------------------------------------||
B :10-9-----8-7------|-------------------------------------------||
G :-----6-7----------|---10-9-----9-7---------------------------*||
D :-------------10-9-|-8------7-6-----5--4-----3---2------------*||
A :------------------|---------------------4-----2---1---6---5---||
E :------------------|-----------------------2---------0---5---4-||
   16:21                      16:24                               x3
E :-----|-6--6--6--6--6\--||--------------------------------------||
B :-----|-6--6--6--6--6\--||--------------------------------------||
G :-----|-----------------||*------------------------------------*||
D :-----|-----------------||*-------------------------5--------4-*||
A :-----|-----------------||--3-3-3-3--6-3-3-3--5-3-3----3-3-3----||
E :-3---|-----------------||--------------------------------------||
                             P.M. all except D string
                                                2nd time guitar two
   16:30                                 16:32  doubles an octave higher      x2
E :-----------------------------------||--------------------------------------||
B :-----------------------------------||--------------------------------------||
G :-----------------------------------||*------------------------------------*||
D :-------6-------4-------------------||*----4--5-----------5--7--8--x--4--5-*||
A :-3-3-3---3-3-3----3-3-3-5--3-3-3-6-||--3--------x--5--6--------------------||
E :-----------------------------------||--------------------------------------||
   P.M. all except D string   16:38
E :---------------------------------|---------------------------------|
B :-------------------3-------------|---------------------------------|
G :-----------------4---5-----------|-----------------------------(A#)|
D :-----3---4---5---------------3---|-4---5-------6-5-4---3-------A.H-|
A :-6-3---3---3---3-------3-6-3---3-|---------4-------------6---5-3---|
E :---------------------------------|---3---4---3-------4-----3-------|
comments
print report bad tab
6 comments total. Showing first comments.
0 reply
MyFuriousNipple wrote on April 1 2006, 05:10 pm

Holy **** nice job

0 reply
will_petersen wrote on November 13 2006, 06:22 pm

I'd say so...

0 reply
marcelocrispim wrote on January 11 2007, 01:14 pm

hhahahahahh wow

I want to post or [tab]
guest
You may want to rate the tab now too:
select rating
Please do not post tabs as comments. Select "correction" instead!