Oops, an error
Loading. Please wait.

When Water Breaks Tab

1,084 views 1 this week
no commentswrite comment
1 2 3 4 5
please rate
Autoscroll
+/-
esc
set tempo
stop
Hey! There's an official Ultimate Guitar app which is ideal
for learning songs when you're away from computer. Get the app
WARNING: You are trying to view
                                    content from Ultimate-Guitar.com
                                    in an unauthorized application,
                                    which is prohibited.

                                    Please use an official Ultimate
                                    Guitar Tabs application for iPhone,
                                    iPad or Android to access legitimate
                                    chords, guitar, bass, and drum tabs
                                    from Ultimate-Guitar.com database.

                                    Type "ultimate guitar tabs" in Apple
                                    App Store's or Android Market's
                                    search to find the application.
                          When The Water Breaks 
                     From Liquid Tension Experiment 2
                     


Tabbed by Esa Mikkola (Finland)

Comments and corrections to:
esamikkola@hotmail.com


I left some stuff away like vibratos and palm-mutes
because there was enough work already. and time
signatures are far too complex for me. I couldn't tab
some solos but here is at least some parts.

Intro

|---------------------------------------------|
|---------------------------------------------|
|---------------------------------------------|
|----5----3-5-6---piano-----5---*-3-5-6-5-3---| *I don't know 
|------------------------------------------6--|  about this, 
|--3---3------------------3---3---------------|  there is played
                                                 some harmony and 
                                                 I don't know what.
|---------------------------------------------|   
|---------------------------4-2---------------|
|-------------------------------2-------------|
|---5----3-5-6-5-3------6-------------6-------|
|------------------6------4-------5-----------|
|-3---3---------------4-------------3---------|

|-----------------------------------9-10-11-------------|
|---------------------------------9---------------------|
|-----------------------------6-7-----------9-8---------|
|---5----3-5-6-5-3----------6-------------------8-------|
|------------------6--6-5-6-----------------------7-6-5-|
|-3---3-------------------------------------------------|

|------------------------------------------|
|---------------------------4-2------------|
|-------------------------------2----------|
|----5---3-5-6-5-3------6--------------6---|
|------------------6------4--------5-------|
|--3---3-------------4---------------3-----|

|-----------------------------------------3-2-|
|-----------------------------------1-0-1-----|
|------------------6-8------------------------|
|-5--------6-----------7-6-7-6-5-4------------|
|---4---4----5---5----------------------------|
|-----3--------4------------------------------|

|--------------------------------------------------------------|
|-10-9------9-8--------7-6------6-5----------------------------|
|------7-6------5-6--4-----4--3-----3--------------------------|
|--------------------------------------5-----3---2-----3-----0-|
|----------------------------------------4-----1---1-----2-----|
|------------------------------------------3---------0-----1---|

1:02
|---8br----8----6br-4-h6p4p3-3--------------------------|
|-8-----8-----6----------------4------------------------|
|--------------------------------5-/7-5-5-h7p5p4-/7-7---|
|-------------------------------------------------------|
|-------------------------------------------------------|
|-------------------------------------------------------|   

|------8br-/10-11----13br-15h16-16-11-13-10---10---|
|-8-8-------------11------------------------8------|
|--------------------------------------------------|
|--------------------------------------------------|
|--------------------------------------------------|
|--------------------------------------------------|

|-11p10p8---------------------------------------------|
|---------9p8--------9p8------------------------------|
|-------------10p8p7-----10p8p7-----------------------|
|-------------------------------10-9------------------|
|------------------------------------11-10-8-10-------|
|-----------------------------------------------------|

                                   *                     *This is
|-20-\-15-/-18--16-15-16---13--15--t18bp15r-------------| kind of hard 
|-------------------------------------------13-11----13-| to explain but
|-------------------------------------------------12----| you have to 
|-------------------------------------------------------| bend 15 up and 
|-------------------------------------------------------| tap that 18 at 
|-------------------------------------------------------| the same time
                                                          and when you
                                                          release that
|----------------------------------------------------|    15, make the
|-t16bp13r-13----------------------------------------|    pull-off.
|------------------8-10b-10b-10b-10b-10b-10b-10b-10b-|
|--------------/10----Here just bend gradually up----|
|----------------------------------------------------|
|----------------------------------------------------|
                                                pull-off.

|--------------------------------------13-15h16p15p13-|
|--/15-15h16p15p13-15h16p15p13-15---16----------------|
|-----------------------------------------------------|
|-----------------------------------------------------|
|-----------------------------------------------------|
|-----------------------------------------------------|

|-15h16p15p13-15---16-18-21---------------18-18brp16-19-|
|------------------------------21-18-21-----------------|
|-------------------------------------------------------|
|-------------------------------------------------------|
|-------------------------------------------------------|
|-------------------------------------------------------|

|----19----19------22----22--24--24--------------------------|
|-18----18-----/21----21-------------------------------------|
|---------------------------------------------------13-14-14-|
|------------------------------------------------14----------|
|---------------------------------------15-12-15-------------|
|------------------------------------------------------------|

2:50                                     
|--------------------------------------------------------|
|-10-8-7-5--10-8-7-5-------------8-10------12-10----10-8-|
|---------------------7-5-7-9-10------9----------9-------|
|--------------------------------------------------------|
|--------------------------------------------------------|
|--------------------------------------------------------|

|-10-------------5----------------------------------|
|----7-h8p7p5------------------------12---10---10-8-|
|-------------------7brp5-7--4br---9---------9------|
|---------------------------------------------------|
|---------------------------------------------------|
|---------------------------------------------------|

              * vibrato with bar
|-10---12b-12-*12--14-15----17----17br---12-14-15-15-|
|----8-------------------13----13--------------------|
|----------------------------------------------------|
|----------------------------------------------------|
|----------------------------------------------------|
|----------------------------------------------------|

|-p14------------------15----------------------------------|
|-----15-----10-12-13-----12-13p12p10----10----------------|
|--------14---------------------------12-----12-11br-------|
|----------------------------------------------------12----|
|-------------------------------------------------------12-|
|----------------------------------------------------------|

|---------------------------------14-15-17-14-15\12-|
|-----------------5-8-7--8--8--8--------------------|
|--7h9--9\5-4-5-7-----------------------------------|
|---------------------------------------------------|
|---------------------------------------------------|
|---------------------------------------------------|

|-12-14-15-12-14\10--10-12-14-10-12\8-8-10-12-8-10\7-|
|----------------------------------------------------|
|----------------------------------------------------|
|----------------------------------------------------|
|----------------------------------------------------|
|----------------------------------------------------|

                                       here 2nd guitar plays this whole
|-7-8-10-7-8-7---------------7---------14-15-17-14-15\12-| thing 1 and « 
|--------------10---8-7-8-10---10------------------------| steps 
|--------------------------------------------------------| higher
|--------------------------------------------------------|
|--------------------------------------------------------|
|--------------------------------------------------------|

|-12-14-15-12-14\10--10-12-14-10-12\8--8-10-12-8-10\7-|
|-----------------------------------------------------|
|-----------------------------------------------------|
|-----------------------------------------------------|
|-----------------------------------------------------|
|-----------------------------------------------------|

|-7-8-10-7-10-12-10-------14-17-22br-------------|
|----------------------15---------------12--10---|
|-------------------------------------9--------9-|
|------------------------------------------------|
|------------------------------------------------|
|------------------------------------------------|

|-------10------------5------------------------------|
|-10-8-----7-h8p7p5-----------------------12-10--/13-|
|------------------------7br-5-7--5-4---9------------|
|----------------------------------------------------|
|----------------------------------------------------|
|----------------------------------------------------|

|--------------------------------------------------------------|
|-12p10\8---10/12\10-------------------------------------------|
|---------------------12p11p9----------------------21-21-19-19-|
|--------------------------------------19-19-------------------|
|--------------------------------17-17-------19-19-------------|
|--------------------------------------------------------------|

|--------------24-24-20-20--22---19br-------------------|
|-22-22-20-20-------------------------20----------------|
|----------------------------------------19-17-16-17-19-|
|-------------------------------------------------------|
|-------------------------------------------------------|
|-------------------------------------------------------|

|-------------------------------------------------15b-15br----------|
|----------------15b-15b-15br-13-15--13p12p10--------------15/17\15-|
|-17-16-14---12--------------------------------12-------------------|
|-------------------------------------------------------------------|
|-------------------------------------------------------------------|
|-------------------------------------------------------------------|

4:12
|----------------------------------------|
|----------------------------------------|
|-2---------------------5-----------7----|
|-2---------------------5-----------7----|
|-0---------------------3-----------5----|
|----------------------------------------|

4:34
|-----------------------------------------------------|
|-----------------------------------------------------|
|-----0--------------------------------------------7\-|
|----------3-----2---3---3-------7---5-----4---5------|
|---3---3----3-----3---3-------5---5---5-----5---5----|
|-1------------1-------------3-----------3------------|

|----------------------------------------------------------|
|------------------------------------------------------8\--|
|-----0-------------------/5-----------------6---7---------|
|----------3-----2---3--------------7---9------5---5-5-----|
|---3---3----3-----3---3-------5------5---5----------------|
|-1------------1-----------------3-------------------------|

|---------------------------------------------|
|---------------------------------------------|
|-2-------------------------------------------|
|-2-------------------------------------------|
|-0-------------------------------------------|
|---------------------------------------------|

5:37
|----------------------------------------------------------------|
|----------------------------------------------------------------|
|----------------------------------------------------------------|
|----1-2-------2-4-5--1-2------1---2---------------2---4---5-----|
|-0-------3-4--------------0---------0---3---4-0-------------0---|
|----------------------------0---0-----0---0-----0---0---0-----0-|

|---------------|
|---------------|
|---------------|
|-1----2--------|
|--------0------|
|---0------0----|

6:00
|---------------------------------------------------------------|
|---------------------------------------------------------------|
|---------------------------------------------------------------|
|---------------3------------------------------3----------------|
|-5-----------3----5-----------3-5-----------3----5-----------3-|
|----2--3-4-5---------2--3-4-5------2--3-4-5---------2--3-4-5---|

|------------------------------------------------------|
|------------------------------------------------------|
|------------------------------------------------------|
|-----1----2ah---------------2---4---5ah-----1---2ah---|
|-0---------------3---4ah------------------------------|
|---0---0-------0---0------0---0---0------0----0-------|

Then some variations of that and solo which is not tabbed.

Then after keyboard comes more solos and I didn't get them
but here are the chords.

7:46
|-----------------------------------------|
|-----------------------------------------|
|-----------------------------------------|
|-7------5----5---------7-------5---------|
|-5------3----2---------5-------3------5--|
|--------------------------------------3--|

8:22

3X                                 1st and 2nd ending
|---------------------------------|---------------------------------|
|---------------------------------|---------------------------------|
|---------------------------------|---------------------------------|
|-----------------------5-----4-4-|-------6-------4-----------------|
|-3-3-3-3-6-3-3-3-5-3-3---3-3-----|-3-3-3---3-3-3---3-3-3-6-3-3-6-3-|
|---------------------------------|---------------------------------|

Then some variations with acoustic guitar

9:14

 16x  15x   15x  7x   7x  16x   15x  15x  7x   7x
|----|----|----|----|----|----|----|----|----|----|
|----|----|----|----|----|----|----|----|----|----|
|-12-|-11-|-13-|-10-|-11-|-12-|-11-|-10-|-13-|-11-|
|-10-|-10-|-10-|-10-|-10-|-10-|-10-|-10-|-10-|-10-|
|----|----|----|----|----|----|----|----|----|----|
|----|----|----|----|----|----|----|----|----|----|

Then some single notes which are easy to catch

10:07                               *pick while bending 
|-8---10---11---11h13--11-10-8--10b-*10--r10-------|
|--------------------------------------------10-b--|
|--------------------------------------------------|
|--------------------------------------------------|
|--------------------------------------------------|
|--------------------------------------------------|

|--------------------18--16-15-16---15br--11-10br-----8tr10--7-|
|-13-b-13r---/15-16-------------------------------10-----------|
|--------------------------------------------------------------|
|--------------------------------------------------------------|
|--------------------------------------------------------------|
|--------------------------------------------------------------|

10:35

This is a great solo. It is played with two guitars but 2nd
guitar plays only few parts differently.

  1st guitar
|15-11-13----11----------------11-13-15p11----------11-11----13----15----|
|---------15----13-15-13----13-------------11----11-------11----11----11-|
|------------------------12-------------------12-------------------------|
|------------------------------------------------------------------------|
|------------------------------------------------------------------------|
|------------------------------------------------------------------------|
| 
| 2nd guitar
|15-11-13----11----------------11-13-18p15----------15-15----16----18----|
|---------15----13-15-13----13-------------16----16-------16----16----16-|
|------------------------12-------------------15-------------------------|
|------------------------------------------------------------------------|
|------------------------------------------------------------------------|
|------------------------------------------------------------------------|

  1st guitar
|13-10-11----10----------------10-13-16p13----------13-------------------|
|---------13----11-13-11----11-------------13----13----13----15----16----|
|------------------------10-------------------13----------13----13----13-|
|------------------------------------------------------------------------|
|------------------------------------------------------------------------|
|------------------------------------------------------------------------|
|
| 2nd guitar
|13-10-11----10----------------10-13-20p16----------16-------------------|
|---------13----11-13-11----11-------------18----18----18----20----21----|
|------------------------10-------------------17----------17----17----17-|
|------------------------------------------------------------------------|
|------------------------------------------------------------------------|
|------------------------------------------------------------------------|

The rest is same with both guitars

  |----4----| |----4----| |----4----| |----4----|
|----------------13-15-16-15-------15-13-----------------------------------|
|-16-15-13-15-16-------------13-16-------16-15-13--15----------------------|
|-----------------------------------------------------14-14----------------|
|-----------------------------------------------------------16-16----------|
|-----------------------------------------------------------------17-17-12-|
|--------------------------------------------------------------------------|

|---------------14-17p14----------------------------15-19p15----------------|
|------------15----------15----------------------15----------15-------------|
|---------14----------------14----------------16----------------16----------|
|------16----------------------16----------17----------------------17-------|
|12h17----------------------------17----17----------------------------17----|
|------------------------------------15----------------------------------15-|

                      This is fast! 
|---------------------15-13-11-15-13-11-------------------------------|
|--------------20-----------------------15-13-12----------------------|
|------------------------------------------------13-12-10-12-13-12-10-|
|----17----17-----17--------------------------------------------------|
|---------------------------------------------------------------------|
|-15----15------------------------------------------------------------|

|----------------------------|
|----------------------------|
|----12-10-------10----------|
|-13-------13-12----13-12-10-|
|----------------------------|
|----------------------------|


Then there is few minutes keyboards solos and before it
there is section which is based on C chord.

12:50
|-------------------------------------------|
|-------------------3-----------------------|
|-----------------4----5--------------------|
|-----3---4---5----------------3---4-5------|
|-6-3---3---3---3--------3-6-3---3----------|
|--------------------------------------3-3--|

                                        1st ending
|--------------------------------------|----------------|
|-------------------3------------------|----------------|
|-----------------4----5---------------|----------------|
|-----3---4---5----------------3---4-5-|-5-4-3-----1----|
|-6-3---3---3---3--------3-6-3---3-----|-------1-2---3--|
|--------------------------------------|----------------|

  2nd ending
|----------------------------|
|----------------------------|
|----------------------------|
|-5-4-3-----1------------1---|
|-------1-2----------1-2---3-|
|--------------1-2-3---------|

Then some variations of those above and solo

14:33

|-------------------------------7-8--------------------------11-10-|
|------------------8-9-8h9p8---------10-10-11br-11--11----11-------|
|-5--7-8-7---8-10------------10------------------------12----------|
|------------------------------------------------------------------|
|------------------------------------------------------------------|
|------------------------------------------------------------------|

|-7--------------------8-------------------------------------------|
|---8---------8-9p8-9----8--9-8h9p8--------------------------------|
|-----7-8--10-----------------------7-10-8h10p8-7-8-5--5-5-4-4-----|
|--------------------------------------------------------------5-5-|
|------------------------------------------------------------------|
|------------------------------------------------------------------|

|-8-------8-10-11-8--10----------10-11-13-10--11----------11-13-15-11-|
|---9---9---------------11----11-----------------11----11-------------|
|-----8--------------------10-----------------------12----------------|
|---------------------------------------------------------------------|
|---------------------------------------------------------------------|
|---------------------------------------------------------------------|
                  
|-13----------13-16-15-13----15-13-11-13-11-------------11-13-15-|
|----15----15-------------------------------15-11-13-15----------|
|-------15-------------------------------------------------------|
|----------------------------------------------------------------|
|----------------------------------------------------------------|
|----------------------------------------------------------------|

|-15-13-11-------------------------------------------------11-15p11----------|
|----------15-13-11-------------------------------------11----------11-------|
|-------------------13-12-10-------------------------12----------------12----|
|----------------------------13-12-10------10-12--13----------------------13-|
|-------------------------------------13-------------------------------------|
|----------------------------------------------------------------------------|

|-15p11-----------------------------------------------------------------|
|-------11-------------------------------------------------11----11-13--|
|----------12-------------------------------10-12-10-12-13----13--------|
|-------------13--------10-9-10-12-13-12-13-----------------------------|
|----------------13-----------------------------------------------------|
|-------------------11--------------------------------------------------|
  not sure about these sweeps

|-------------------11-15-13-10----------10-11-13--11--10tr11---|
|----------------13-------------11----11------------------------|
|-12----------12-------------------10---------------------------|
|----13-10-13---------------------------------------------------|
|---------------------------------------------------------------|
|---------------------------------------------------------------|

|--8--8-7-5-7-----11-10-8-10-----16-15-13-15----15-16-18--22br-|
|--------------------------------------------------------------|
|--------------------------------------------------------------|
|--------------------------------------------------------------|
|--------------------------------------------------------------|
|--------------------------------------------------------------|

15:11
|-----------------------------------------------------------|
|---------------------------------------------------------4-|
|-----------------------------------------------3---3-5-7---|
|-----------3---3-5-3-----------------3---3-5-6---6---------|
|-3-5-6-5-6---6-------6-5---3-5-6-5-6---6-------------------|
|-----------------------------------------------------------|

|-----------------------------------------------------------------------|
|-----------------------4-3---------------------------------------------|
|----------------------------------------------2-3-2--------------------|
|-----------3-5-3--------------------------4-5-------5-3----------------|
|-3-5-6-5-6-------6-5-3----------------3-----------------6--------------|
|----------------------------3-5-6-5-6---3-----------------5--6-8-6-5-3-|

The rest is just the same riffs that I already tabbed so that's it. Enjoy!
comments
We did not receive enough feedback on this tab! Please rate:
print report bad tab
1 2 3 4 5
I want to post or [tab]
guest
You may want to rate the tab now too:
select rating
Please do not post tabs as comments. Select "correction" instead!