Oops, an error
Loading. Please wait.

Cuando Apagues La Luz Tab

1,126 views 1 this week
no commentswrite comment
1 2 3 4 5
worth learning
x 1
Autoscroll
+/-
esc
set tempo
stop
Contributor
WARNING: You are trying to view
                                    content from Ultimate-Guitar.com
                                    in an unauthorized application,
                                    which is prohibited.

                                    Please use an official Ultimate
                                    Guitar Tabs application for iPhone,
                                    iPad or Android to access legitimate
                                    chords, guitar, bass, and drum tabs
                                    from Ultimate-Guitar.com database.

                                    Type "ultimate guitar tabs" in Apple
                                    App Store's or Android Market's
                                    search to find the application.
                           Cuando apagues la luz                               


                                                                         Liquits
Guitarra 2



E||-------|-------|-------|-------|-------|-------|-------|-------|-------|
B||-------|-------|-------|-------|-------|-------|-------|-------|-------|
G||-------|-------|-------|-------|-------|-------|-------|-------|-------|
D||-------|-------|-------|-------|-------|-------|-------|-------|-------|
A||-------|-------|-------|-------|-------|-------|-------|-------|-------|
E||-------|-------|-------|-------|-------|-------|-------|-------|-------|


  E  E  E  E  E  E  E  E     E  E  E  E  E  E  E  E   
-----5-----5-----5-----5--|-----3-----3-----3-----3--|
-----6-----6-----6-----6--|-----5-----5-----5-----5--|
-----7-----7-----7-----7--|-----5-----5-----5-----5--|
-----7-----7-----7-----7--|-----5-----5-----5-----5--|
--------------------------|--------------------------|
--------------------------|--------------------------|


  E  E  E  E  E  E  E  E     E  E  E  E  E  E  E  E   
-----5-----5-----5-----5--|-----6--6--6-----6--6--6--|
-----6-----6-----6-----6--|-----6--6--6-----6--6--6--|
-----7-----7-----7-----7--|-----7--7--7-----7--7--7--|
-----7-----7-----7-----7--|-----------------8--8--8--|
-----5-----5-----5-----5--|-----------------8--8--8--|
--------------------------|--------------------------|


  E  E  E  E  E  E  E  E     E  E  E  E  E  E  E  E   
-----5-----5-----5-----5--|-----3-----3-----3-----3--|
-----6-----6-----6-----6--|-----5-----5-----5-----5--|
-----7-----7-----7-----7--|-----5-----5-----5-----5--|
-----7-----7-----7-----7--|-----5-----5-----5-----5--|
-----5-----5-----5-----5--|--------------------------|
--------------------------|--------------------------|


  E  E  E  E  E  E  E  E     E  E  E  E  E  E  E  E   
-----1--1--1-----1--1--1--|-----3--3--3-----3--3--3--|
-----3--3--3-----3--3--3--|-----5--5--5-----5--5--5--|
-----3--3--3-----3--3--3--|-----5--5--5-----5--5--5--|
-----3--3--3-----3--3--3--|--------------------------|
--------------------------|--------------------------|
--------------------------|--------------------------|


  E  E  E  E  E  E  E  E     E  E  E  E  E  E  E  E   
-----5-----5-----5-----5--|-----3-----3-----3--3--3--|
-----6-----6-----6-----6--|-----5-----5-----5--5--5--|
-----7-----7-----7-----7--|-----5-----5-----5--5--5--|
--------------------------|--------------------------|
--------------------------|--------------------------|
--------------------------|--------------------------|


  E  E  E  E  E  E  E  E     E  E  E  E  E  E  E  E   
-----5-----5-----5-----5--|-----6--6--6-----6--6--6--|
-----6-----6-----6-----6--|-----6--6--6-----6--6--6--|
-----7-----7-----7-----7--|-----7--7--7-----7--7--7--|
--------------------------|-----------------8--8--8--|
--------------------------|--------------------------|
--------------------------|--------------------------|


  E  E  E  E  E  E  E  E     E  E  E  E  E  E  E  E   
-----5-----5-----5-----5--|-----3-----3-----3--3--3--|
-----6-----6-----6-----6--|-----5-----5-----5--5--5--|
-----7-----7-----7-----7--|-----5-----5-----5--5--5--|
--------------------------|--------------------------|
--------------------------|--------------------------|
--------------------------|--------------------------|


  E  E  E  E  E  E  E  E     E  E  E  E  E  E  E  E                           
-----1--1--1-----1--1--1--|-----3--3--3-----3--3--3--|-----|-----|-----|-----|
-----3--3--3-----3--3--3--|-----5--5--5-----5--5--5--|-----|-----|-----|-----|
-----3--3--3-----3--3--3--|-----5--5--5-----5--5--5--|-----|-----|-----|-----|
--------------------------|--------------------------|-----|-----|-----|-----|
--------------------------|--------------------------|-----|-----|-----|-----|
--------------------------|--------------------------|-----|-----|-----|-----|


  E  E  E  E  E  E  E  E     E  E  E  E  E  E  E  E   
-----5-----5-----5-----5--|-----3-----3-----3--3--3--|
-----6-----6-----6-----6--|-----5-----5-----5--5--5--|
-----7-----7-----7-----7--|-----5-----5-----5--5--5--|
--------------------------|--------------------------|
--------------------------|--------------------------|
--------------------------|--------------------------|


  E  E  E  E  E  E  E  E     E  E  E  E  E  E  E  E   
-----5-----5-----5-----5--|-----6--6--6-----6--6--6--|
-----6-----6-----6-----6--|-----6--6--6-----6--6--6--|
-----7-----7-----7-----7--|-----7--7--7-----7--7--7--|
--------------------------|-----------------8--8--8--|
--------------------------|--------------------------|
--------------------------|--------------------------|


  E  E  E  E  E  E  E  E     E  E  E  E  E  E  E  E   
-----5-----5-----5-----5--|-----3-----3-----3-----3--|
-----6-----6-----6-----6--|-----5-----5-----5-----5--|
-----7-----7-----7-----7--|-----5-----5-----5-----5--|
--------------------------|--------------------------|
--------------------------|--------------------------|
--------------------------|--------------------------|


  E  E  E  E  E  E  E  E     E  E  E  E  E  E  E  E     W                 
-----1--1--1-----1--1--1--|-----3--3--3-----3--3--3--|-------------------|
-----3--3--3-----3--3--3--|-----5--5--5-----5--5--5--|-------------------|
-----3--3--3-----3--3--3--|-----5--5--5-----5--5--5--|--7----------------|
--------------------------|--------------------------|--7----------------|
--------------------------|--------------------------|--5----------------|
--------------------------|--------------------------|-------------------|


  W                   W                   H        H         
-------------------|-------------------|--------------------|
-------------------|-------------------|--------------------|
--5----------------|--7----------------|--3--------5--------|
--5----------------|--7----------------|--3--------5--------|
--3----------------|--5----------------|--1--------3--------|
-------------------|-------------------|--------------------|


  W                   W                   W                   W                 
-------------------|-------------------|-------------------|-------------------|
-------------------|-------------------|-------------------|-------------------|
--7----------------|--5----------------|--3----------------|--5----------------|
--7----------------|--5----------------|--3----------------|--5----------------|
--5----------------|--3----------------|--1----------------|--3----------------|
-------------------|-------------------|-------------------|-------------------|


    Q    E  H        E     Q    E  H        E     Q    E  H        E   
|-----------------------|----------------------|----------------------|
|-----------------------|--5-------5-----------|--6-------6-----------|
|*--2-------2-----------|--5-------5--------L--|--7-------7--------L--|
|*--3-------3--------L--|--5-------5--------L--|--7-------7--------L--|
|---3-------3--------L--|--3-------3--------L--|--5-------5--------L--|
|---1-------1--------L--|----------------------|----------------------|


  Q    E  H        E     Q    E  H        E     Q    E  H        E   
----------------------|----------------------|----------------------|
--3-------3-----------|----------------------|--5-------5-----------|
--3-------3--------L--|--2-------2-----------|--5-------5--------L--|
--3-------3--------L--|--3-------3--------L--|--5-------5--------L--|
--1-------1--------L--|--3-------3--------L--|--3-------3--------L--|
----------------------|--1-------1--------L--|----------------------|


  Q    E  H        E     Q    E  H        E                                     
----------------------|-----------------------||-------|-------|-------|-------|
--6-------6-----------|--3-------3------------||-------|-------|-------|-------|
--7-------7--------L--|--3-------3--------L--*||-------|-------|-------|-------|
--7-------7--------L--|--3-------3--------L--*||-------|-------|-------|-------|
--5-------5--------L--|--1-------1--------L---||-------|-------|-------|-------|
----------------------|-----------------------||-------|-------|-------|-------|


                                  E  E  E  E  E  E  E  E   
-------|-------|-------|-------|-----5-----5-----5-----5--|
-------|-------|-------|-------|-----6-----6-----6-----6--|
-------|-------|-------|-------|-----7-----7-----7-----7--|
-------|-------|-------|-------|--------------------------|
-------|-------|-------|-------|--------------------------|
-------|-------|-------|-------|--------------------------|


  E  E  E  E  E  E  E  E     E  E  E  E  E  E  E  E   
-----3-----3-----3--3--3--|-----5-----5-----5-----5--|
-----5-----5-----5--5--5--|-----6-----6-----6-----6--|
-----5-----5-----5--5--5--|-----7-----7-----7-----7--|
--------------------------|--------------------------|
--------------------------|--------------------------|
--------------------------|--------------------------|


  E  E  E  E  E  E  E  E     E  E  E  E  E  E  E  E   
-----6--6--6-----6--6--6--|-----5-----5-----5-----5--|
-----6--6--6-----6--6--6--|-----6-----6-----6-----6--|
-----7--7--7-----7--7--7--|-----7-----7-----7-----7--|
-----------------8--8--8--|--------------------------|
--------------------------|--------------------------|
--------------------------|--------------------------|


  E  E  E  E  E  E  E  E     E  E  E  E  E  E  E  E   
-----3-----3-----3--3--3--|-----1--1--1-----1--1--1--|
-----5-----5-----5--5--5--|-----3--3--3-----3--3--3--|
-----5-----5-----5--5--5--|-----3--3--3-----3--3--3--|
--------------------------|--------------------------|
--------------------------|--------------------------|
--------------------------|--------------------------|


  E  E  E  E  E  E  E  E     E  E  E  E  E  E  E  E   
-----3--3--3-----3--3--3--|-----5-----5-----5-----5--|
-----5--5--5-----5--5--5--|-----6-----6-----6-----6--|
-----5--5--5-----5--5--5--|-----7-----7-----7-----7--|
--------------------------|--------------------------|
--------------------------|--------------------------|
--------------------------|--------------------------|


  E  E  E  E  E  E  E  E     E  E  E  E  E  E  E  E   
-----3-----3-----3--3--3--|-----5-----5-----5-----5--|
-----5-----5-----5--5--5--|-----6-----6-----6-----6--|
-----5-----5-----5--5--5--|-----7-----7-----7-----7--|
--------------------------|--------------------------|
--------------------------|--------------------------|
--------------------------|--------------------------|


  E  E  E  E  E  E  E  E     E  E  E  E  E  E  E  E   
-----6--6--6-----6--6--6--|-----5-----5-----5-----5--|
-----6--6--6-----6--6--6--|-----6-----6-----6-----6--|
-----7--7--7-----7--7--7--|-----7-----7-----7-----7--|
-----------------8--8--8--|--------------------------|
--------------------------|--------------------------|
--------------------------|--------------------------|


  E  E  E  E  E  E  E  E     E  E  E  E  E  E  E  E   
-----3-----3-----3--3--3--|-----1--1--1-----1--1--1--|
-----5-----5-----5--5--5--|-----3--3--3-----3--3--3--|
-----5-----5-----5--5--5--|-----3--3--3-----3--3--3--|
--------------------------|--------------------------|
--------------------------|--------------------------|
--------------------------|--------------------------|


  E  E  E  E  E  E  E  E     W                   W                 
-----3--3--3-----3--3--3--|-------------------|-------------------|
-----5--5--5-----5--5--5--|-------------------|-------------------|
-----5--5--5-----5--5--5--|--7----------------|--5----------------|
--------------------------|--7----------------|--5----------------|
--------------------------|--5----------------|--3----------------|
--------------------------|-------------------|-------------------|


  W                   H        H           W                 
-------------------|--------------------|-------------------|
-------------------|--------------------|-------------------|
--7----------------|--3--------5--------|--7----------------|
--7----------------|--3--------5--------|--7----------------|
--5----------------|--1--------3--------|--5----------------|
-------------------|--------------------|-------------------|


  W                   W                   W                 
-------------------|-------------------|-------------------|
-------------------|-------------------|-------------------|
--5----------------|--3----------------|--5----------------|
--5----------------|--3----------------|--5----------------|
--3----------------|--1----------------|--3----------------|
-------------------|-------------------|-------------------|


  Q    E  H        E     Q    E  H        E     Q    E  H        E   
----------------------|----------------------|----------------------|
----------------------|--5-------5-----------|--6-------6-----------|
--2-------2-----------|--5-------5--------L--|--7-------7--------L--|
--3-------3--------L--|--5-------5--------L--|--7-------7--------L--|
--3-------3--------L--|--3-------3--------L--|--5-------5--------L--|
--1-------1--------L--|----------------------|----------------------|


  Q    E  H        E     Q    E  H        E     Q    E  H        E   
----------------------|----------------------|----------------------|
--3-------3-----------|----------------------|--5-------5-----------|
--3-------3--------L--|--2-------2-----------|--5-------5--------L--|
--3-------3--------L--|--3-------3--------L--|--5-------5--------L--|
--1-------1--------L--|--3-------3--------L--|--3-------3--------L--|
----------------------|--1-------1--------L--|----------------------|


  Q    E  H        E     Q    E  H        E     Q    E  H        E   
----------------------|----------------------|----------------------|
--6-------6-----------|--3-------3-----------|----------------------|
--7-------7--------L--|--3-------3--------L--|--2-------2-----------|
--7-------7--------L--|--3-------3--------L--|--3-------3--------L--|
--5-------5--------L--|--1-------1--------L--|--3-------3--------L--|
----------------------|----------------------|--1-------1--------L--|


  Q    E  H        E     Q    E  H        E     Q    E  H        E   
----------------------|----------------------|----------------------|
--5-------5-----------|--6-------6-----------|--3-------3-----------|
--5-------5--------L--|--7-------7--------L--|--3-------3--------L--|
--5-------5--------L--|--7-------7--------L--|--3-------3--------L--|
--3-------3--------L--|--5-------5--------L--|--1-------1--------L--|
----------------------|----------------------|----------------------|


  Q    E  H        E     Q    E  H        E     Q    E  H        E   
----------------------|----------------------|----------------------|
----------------------|--5-------5-----------|--6-------6-----------|
--2-------2-----------|--5-------5--------L--|--7-------7--------L--|
--3-------3--------L--|--5-------5--------L--|--7-------7--------L--|
--3-------3--------L--|--3-------3--------L--|--5-------5--------L--|
--1-------1--------L--|----------------------|----------------------|


  Q    E  H        E     Q    E  E  E  E  E  E     E  E  E   E  E   E   E   E   
----------------------|-------------------------|------------------------------|
--3-------3-----------|-------------------------|------------------------------|
--3-------3--------L--|-------------------------|------------------------------|
--3-------3--------L--|--5----5--5--5--5--5--8--|--L--8--8--10--L--10--10--10--|
--1-------1--------L--|--5----5--5--5--5--5--8--|--L--8--8--10--L--10--10--10--|
----------------------|--3----3--3--3--3--3--6--|--L--6--6---8--L---8---8---8--|


  Q    E  E  E  E  E  E     E  E  E   E  E   E   E   E   
-------------------------|------------------------------|
-------------------------|------------------------------|
-------------------------|------------------------------|
--5----5--5--5--5--5--8--|--L--8--8--10--L--10--10--10--|
--5----5--5--5--5--5--8--|--L--8--8--10--L--10--10--10--|
--3----3--3--3--3--3--6--|--L--6--6---8--L---8---8---8--|


  Q    E  E  E  E  E  E     E  E  E   E  E   E   E   E   
-------------------------|------------------------------|
-------------------------|------------------------------|
-------------------------|------------------------------|
--5----5--5--5--5--5--8--|--L--8--8--10--L--10--10--10--|
--5----5--5--5--5--5--8--|--L--8--8--10--L--10--10--10--|
--3----3--3--3--3--3--6--|--L--6--6---8--L---8---8---8--|


  H        E  E  E  E     E  E  E  E  E  E  E  E       Q    E  H        E   
-----------------------|--------------------------||-----------------------|
-----------------------|--------------------------||-----------------------|
--7--------7--7--7--7--|--7--7--7--7--7--7--7--7--||*--2-------2-----------|
--7--------7--7--7--7--|--7--7--7--7--7--7--7--7--||*--3-------3--------L--|
--5--------5--5--5--5--|--5--5--5--5--5--5--5--5--||---3-------3--------L--|
-----------------------|--------------------------||---1-------1--------L--|


  Q    E  H        E     Q    E  H        E     Q    E  H        E   
----------------------|----------------------|----------------------|
--5-------5-----------|--6-------6-----------|--3-------3-----------|
--5-------5--------L--|--7-------7--------L--|--3-------3--------L--|
--5-------5--------L--|--7-------7--------L--|--3-------3--------L--|
--3-------3--------L--|--5-------5--------L--|--1-------1--------L--|
----------------------|----------------------|----------------------|


  Q    E  H        E     Q    E  H        E     Q    E  H        E   
----------------------|----------------------|----------------------|
----------------------|--5-------5-----------|--6-------6-----------|
--2-------2-----------|--5-------5--------L--|--7-------7--------L--|
--3-------3--------L--|--5-------5--------L--|--7-------7--------L--|
--3-------3--------L--|--3-------3--------L--|--5-------5--------L--|
--1-------1--------L--|----------------------|----------------------|


  Q    E  H        E        E  E  E  E  E  E  E  E     E  E  E  E  E  E  E  E   
-----------------------||---------------------------|--------------------------|
--3-------3------------||---------------------------|--------------------------|
--3-------3--------L--*||*--------------------------|--5--5--5--5--5--5--5--5--|
--3-------3--------L--*||*--3--3--3--3--3--3--3--3--|--5--5--5--5--5--5--5--5--|
--1-------1--------L---||---3--3--3--3--3--3--3--3--|--3--3--3--3--3--3--3--3--|
-----------------------||---1--1--1--1--1--1--1--1--|--------------------------|


  E  E  E  E  E  E  E  E     E  E  E  E  E  E  E  E   
--------------------------|--------------------------|
--------------------------|--------------------------|
--7--7--7--7--7--7--7--7--|--3--3--3--3--3--3--3--3--|
--7--7--7--7--7--7--7--7--|--3--3--3--3--3--3--3--3--|
--5--5--5--5--5--5--5--5--|--1--1--1--1--1--1--1--1--|
--------------------------|--------------------------|


  E  E  E  E  E  E  E  E     E  E  E  E  E  E  E  E   
--------------------------|--------------------------|
--------------------------|--------------------------|
--------------------------|--5--5--5--5--5--5--5--5--|
--3--3--3--3--3--3--3--3--|--5--5--5--5--5--5--5--5--|
--3--3--3--3--3--3--3--3--|--3--3--3--3--3--3--3--3--|
--1--1--1--1--1--1--1--1--|--------------------------|


  E  E  E  E  E  E  E  E     E  E  E  E  E  E  E  E                             
--------------------------|---------------------------||-------|-------|-------|
--------------------------|---------------------------||-------|-------|-------|
--7--7--7--7--7--7--7--7--|--3--3--3--3--3--3--3--3--*||-------|-------|-------|
--7--7--7--7--7--7--7--7--|--3--3--3--3--3--3--3--3--*||-------|-------|-------|
--5--5--5--5--5--5--5--5--|--1--1--1--1--1--1--1--1---||-------|-------|-------|
--------------------------|---------------------------||-------|-------|-------|


-------|-------||
-------|-------||
-------|-------||
-------|-------||
-------|-------||
-------|-------||




Duration Legend
---------------
W - whole
H - half
Q - quarter
E - 8th
S - 16th
T - 32nd
X - 64th
. - note dotted
|-n-|  - n-tuplets


Tablature Legend
----------------
L - tied note
x - dead note
g - grace note
(n) - ghost note
> - accentuded note
NH - natural harmonic
AH - artificial harmonic
TH - tapped harmonic
SH - semi harmonic
PH - pitch harmonic
h - hammer on
p - pull off
b - bend
br - bendRelease
pb - preBend
pbr - preBendRelease
brb - bendReleaseBend
\n/ - tremolo bar dip
\n - tremolo bar dive
-/n - tremolo bar Release up
/n\ - tremolo bar inverted dip
/n - tremolo bar return
-\n - tremolo bar Release down
S - shift slide
s - legato slide
/ -  slide into from below or out of upwards
\ -  slide into from above or out of downwards
~ - vibrato
W - wide vibrato
tr - trill
TP - tremolo picking
T - tapping
S - slap
P - pop
< - fade in
^ - brush up
v - brush down
comments
We did not receive enough feedback on this tab! Please rate:
1 2 3 4 5
I want to post or [tab]
guest
You may want to rate the tab now too:
select rating
Please do not post tabs as comments. Select "correction" instead!