Oops, an error
Loading. Please wait.

Crossing Field Tab

by Lisa
ver1
ver1

Intro

Whole song

Interactive

More versions @911Tabs.com
29,914 views 114 this week
2 commentsread comments
1 2 3 4 5
accurate
x 1
Autoscroll
+/-
esc
set tempo
stop
Difficulty
intermediate
Hey! There's an official Ultimate Guitar app which is ideal
for learning songs when you're away from computer. Get the app
WARNING: You are trying to view
                                    content from Ultimate-Guitar.com
                                    in an unauthorized application,
                                    which is prohibited.

                                    Please use an official Ultimate
                                    Guitar Tabs application for iPhone,
                                    iPad or Android to access legitimate
                                    chords, guitar, bass, and drum tabs
                                    from Ultimate-Guitar.com database.

                                    Type "ultimate guitar tabs" in Apple
                                    App Store's or Android Market's
                                    search to find the application.
TAB:
[Intro]

Blank for 4 bars
|=1===2===3===4===5===6===7===8===|=1===2===3===4===5===6===7===8===|
|---------------------------------|---------------------------------|
|---------------------------------|---------------------------------|
|---------------------------------|---------------------------------|
|-3-------------------------------|-5-------------------------------|
|-1-------------------------------|-3-------------------------------|
|---------------------------------|---------------------------------|


|=1===2===3===4===5===6===7===8===|=1===2===3===4===5===6===7===8===|
|---------------------------------|---------------------------------|
|---------------------------------|---------------------------------|
|---------------------------------|---------------------------------|
|-7---------------------------x---|-7---x---7---7---7---------------|
|-5---------------------------x---|-5---x---5---5---5---------------|
|---------------------------------|---------------------------------|


[Verse]

Blank for 4 bars
|=1===2===3===4===5===6===7===8===|=1===2===3===4===5===6===7===8===|
|---------------------------------|---------------------------------|
|---------------------------------|---------------------------------|
|---------------------------------|---------------------------------|
|-3-------x---3---3---3---3-------|-3-------x---3---3---3---3-------|
|-1-------x---1---1---1---1-------|-1-------x---1---1---1---1-------|
|---------------------------------|---------------------------------|


|=1===2===3===4===5===6===7===8===|=1===2===3===4===5===6===7===8===|
|---------------------------------|---------------------------------|
|---------------------------------|---------------------------------|
|---------------------------------|---------------------------------|
|-5-------x---5---5---5---5-------|-5-------x---5---5---5---5-------|
|-3-------x---3---3---3---3-------|-3-------x---3---3---3---3-------|
|---------------------------------|---------------------------------|

                                                    PM  PM  PM  PM
|=1===2===3===4===5===6===7===8===|=1===2===3===4===5===6===7===8===|
|---------------------------------|---------------------------------|
|---------------------------------|---------------------------------|
|---------------------------------|---------------------------------|
|-7---7---x---7---x---7---x---7---|-x---7---7-------5---5---5---5---|
|-5---5---x---5---x---5---x---5---|-x---5---5-------3---3---3---3---|
|---------------------------------|---------------------------------|


|=1===2===3===4===5===6===7===8===|=1===2===3===4===5===6===7===8===|
|---------------------------------|---------------------8---8---8---|
|---------------------------------|---------------------------------|
|---------------------------------|---------------------------------|
|-7---7---x---7---x---7---x---7---|-x---7---7-----------------------|
|-5---5---x---5---x---5---x---5---|-x---5---5-----------------------|
|---------------------------------|---------------------------------|


|=1===2===3===4===5===6===7===8===|=1===2===3===4===5===6===7===8===|
|---------------------------------|---------------------------------|
|---------------------------------|---------------------------------|
|---------------------------------|---------------------------------|
|---------------------------------|---------------------------------|
|-8-------x---8---8---8---8-------|-8-------x---8---8---8---8-------|
|-6-------x---6---6---6---6-------|-6-------x---6---6---6---6-------|


|=1===2===3===4===5===6===7===8===|=1===2===3===4===5===6===7===8===|
|---------------------------------|---------------------------------|
|---------------------------------|---------------------------------|
|---------------------------------|---------------------------------|
|---------------------------------|---------------------------------|
|-10------x---10--10--10--10------|-10------x---10--10--10--10------|
|-8-------x---8---8---8---8-------|-8-------x---8---8---8---8-------|


[Pre-chrous]
(Clean)
|=1===2===3===4===5===6===7===8===|=1===2===3===4===5===6===7===8===|
|-------------1-------------------|-------------0-------------------|
|---------3---------------3-------|---------1---------------1-------|
|-3-------------------------------|-2-------------------------------|
|---------------------------------|---------------------------------|
|---------------------------------|---------------------------------|
|---------------------------------|---------------------------------|


|=1===2===3===4===5===6===7===8===|=1===2===3===4===5===6===7===8===|
|-------------1-------------------|---------------------------------|
|---------3-----------------------|-------------3-------------------|
|-2-------------------------------|---------4-----------------------|
|---------------------------------|-5-------------------------------|
|---------------------------------|---------------------------------|
|---------------------------------|---------------------------------|

(Disorted)
|=1===2===3===4===5===6===7===8===|=1===2===3===4===5===6===7===8===|
|---------------------------------|---------------------------------|
|---------------------------------|---------------------------------|
|---------------------------------|---------------------------------|
|-8---8-------8---8-------8-------|-8---8---------------------------|
|-6---6---x---6---6---x---6---x---|-6---6---------------------------|
|---------------------------------|---------------------------------|

                                                        PM  PM  PM
|=1===2===3===4===5===6===7===8===|=1===2===3===4===5===6===7===8===|
|---------------------------------|---------------------------------|
|---------------------------------|---------------------------------|
|---------------------------------|---------------------5---5---5---|
|-8---8-------8---8-------8-------|-8---8---------------5---5---5---|
|-6---6---x---6---6---x---6---x---|-6---6---------------------------|
|---------------------------------|---------------------------------|

(Clean)
|=1===2===3===4===5===6===7===8===|=1===2===3===4===5===6===7===8===|
|-------------1-------------------|---------3-----------------------|
|---------3---------------3-------|-----5---------------------------|
|-3-------------------------------|-5-------------------------------|
|---------------------------------|---------------------------------|
|---------------------------------|---------------------------------|
|---------------------------------|---------------------------------|


[Chrous]
|=1===2===3===4===5===6===7===8===|=1===2===3===4===5===6===7===8===|
|---------------------------------|---------------------------------|
|---------------------------------|---------------------------------|
|---------------------------------|---------------------------------|
|-7-------7---7---7---7---7-------|-10------10--10--10--10--10------|
|-5-------5---5---5---5---5-------|-7-------7---7---7---7---7-------|
|---------------------------------|---------------------------------|



|=1===2===3===4===5===6===7===8===|=1===2===3===4===5===6===7===8===|
|---------------------------------|---------------------------------|
|---------------------------------|---------------------------------|
|---------------------------------|---------------------------------|
|---------------------------------|---------------------------------|
|-8-------8---8---8---8---8-------|-10------10--10--10--10--10------|
|-6-------6---6---6---6---6-------|-8-------8---8---8---8---8-------|



|=1===2===3===4===5===6===7===8===|=1===2===3===4===5===6===7===8===|
|---------------------------------|---------------------------------|
|---------------------------------|---------------------------------|
|---------------------------------|---------------------------------|
|---------------------------------|---------------------------------|
|-8---8---x---x---8---8---x---x---|-8---8---x---x---8---8---x---x---|
|-6---6---x---x---6---6---x---x---|-6---6---x---x---6---6---x---x---|



|=1===2===3===4===5===6===7===8===|=1===2===3===4===5===6===7===8===|
|---------------------------------|---------------------------------|
|---------------------------------|---------------------------------|
|---------------------------------|---------------------------------|
|-----------------------------7---|-----7-----------7---7---7---7---|
|-7-------7---7---7---7---7---4---|/5---7-----------7---7---7---7---|
|-5-------5---5---5---5---5-------|---------------------------------|


|=1===2===3===4===5===6===7===8===|=1===2===3===4===5===6===7===8===|
|---------------------------------|---------------------------------|
|---------------------------------|---------------------------------|
|---------------------------------|---------------------------------|
|-7-------7---7---7---7---7-------|-10------10--10--10--10--10------|
|-5-------5---5---5---5---5-------|-7-------7---7---7---7---7-------|
|---------------------------------|---------------------------------|


|=1===2===3===4===5===6===7===8===|=1===2===3===4===5===6===7===8===|
|---------------------------------|---------------------------------|
|---------------------------------|---------------------------------|
|---------------------------------|---------------------------------|
|---------------------------------|---------------------------------|
|-8-------8---8---8---8---8-------|-10------10--10--10--10--10------|
|-6-------6---6---6---6---6-------|-8-------8---8---8---8---8-------|


|=1===2===3===4===5===6===7===8===|=1===2===3===4===5===6===7===8===|
|---------------------------------|---------------------------------|
|---------------------------------|---------------------------------|
|---------------------------------|---------------------------------|
|---------------------------------|---------------------------------|
|-8---8---x---x---8---8---x---x---|-8---8---x---x---8---8---x---x---|
|-6---6---x---x---6---6---x---x---|-6---6---x---x---6---6---x---x---|


|=1===2===3===4===5===6===7===8===|=1===2===3===4===5===6===7===8===|
|---------------------------------|---------------------------------|
|---------------------------------|---------------------------------|
|---------------------------------|---------------------------------|
|-----------------7-------7-------|-----------------7---7---7---7---|
|-7-------7---7---4-------5-------|-----------------5---5---5---5---|
|-5-------5---5-------------------|---------------------------------|



|=1===2===3===4===5===6===7===8===|=1===2===3===4===5===6===7===8===|
|---------------------------------|---------------------------------|
|---------------------------------|---------------------------------|
|---------------------------------|---------------------------------|
|---------------------------------|---------------------------------|
|-5-------5-------5-------5-------|-7-------7-------7-------7-------|
|-3-------3-------3-------3-------|-5-------5-------5-------5-------|



|=1===2===3===4===5===6===7===8===|=1===2===3===4===5===6===7===8===|
|---------------------------------|---------------------------------|
|---------------------------------|---------------------------------|
|-9-------9---x---11------11--x---|-12------12--x---14------14--x---|
|---------------------------------|---------------------------------|
|-7-------7---x---9-------9---x---|-10------10--x---12------12--x---|
|---------------------------------|---------------------------------| 



|=1===2===3===4===5===6===7===8===|=1===2===3===4===5===6===7===8===|
|---------------------------------|---------------------------------|
|---------------------------------|---------------------------------|
|---------------------------------|---------------------------------|
|-3---------------3-------3---3---|-5---------------5-------5---5---|
|-1---------------1-------1---1---|-3---------------3-------3---3---|
|---------------------------------|---------------------------------|

|=1===2===3===4===5===6===7===8===|=1===2===3===4===5===6===7===8===|
|---------------------------------|---------------------------------|
|---------------------------------|---------------------------------|
|---------------------------------|---------------------------------|
|-7---7---x---7---7---x---7---7---|---------------------------------|
|-5---5---x---5---5---x---5---5---|---------------------------------|
|---------------------------------|---------------------------------| 



|=1===2===3===4===5===6===7===8===|=1===2===3===4===5===6===7===8===|
|---------------------------------|---------------------------------|
|---------------------------------|---------------------------------|
|---------------------------------|---------------------------------|
|-7-------7---7---7---7---7-------|-5-------5---5---5---5---5-------|
|-5-------5---5---5---5---5-------|-3-------3---3---3---3---3-------|
|---------------------------------|---------------------------------| 



|=1===2===3===4===5===6===7===8===|=1===2===3===4===5===6===7===8===|
|---------------------------------|---------------------------------|
|---------------------------------|---------------------------------|
|---------------------------------|---------------------------------|
|-3-------3---3---3---3---3-------|-5-------5---5---5---5---5-------|
|-1-------1---1---1---1---1-------|-3-------3---3---3---3---3-------|
|---------------------------------|---------------------------------|



|=1===2===3===4===5===6===7===8===|=1===2===3===4===5===6===7===8===|
|---------------------------------|---------------------------------|
|---------------------------------|---------------------------------|
|---------------------------------|---------------------------------|
|---------------------------------|---------------------------------|
|---------------------------------|---------------------------------|
|---------------------------------|---------------------------------|

[Verse]
|=1===2===3===4===5===6===7===8===|=1===2===3===4===5===6===7===8===|
|---------------------------------|---------------------------------|
|---------------------------------|---------------------------------|
|---------------------------------|---------------------------------|
|-7---7---x---7-------------------|-7---x---7---7-------------------|
|-5---5---x---5-------------------|-5---x---5---5-------------------|
|---------------------------------|---------------------------------|


|=1===2===3===4===5===6===7===8===|=1===2===3===4===5===6===7===8===|
|---------------------------------|---------------------------------|
|---------------------------------|---------------------------------|
|---------------------------------|---------------------------------|
|-7---7---x---7-------------------|-7---x---7---7-------------------|
|-5---5---x---5-------------------|-5---x---5---5---8-------8-------|
|---------------------------------|-----------------6-------6-------| 

  PM  PM  PM  PM  PM  PM  PM  PM    PM  PM  PM  PM
|=1===2===3===4===5===6===7===8===|=1===2===3===4===5===6===7===8===|
|---------5-----------5-----------|-5-----------5-------------------|
|-----6---6-------6---6-------6---|-6-------6---6-------------------|
|-5---5-------5---5-------5---5---|-----5---5-----------------------|
|---------------------------------|---------------------------------|
|---------------------------------|---------------------------------|
|---------------------------------|---------------------------------|

  PM  PM
|=1===2===3===4===5===6===7===8===|=1===2===3===4===5===6===7===8===|
|---------------------------------|---------------------------------|
|---------------------------------|---------------------------------|
|---------------------------------|-7---------------5---------------|
|---------------------------------|---------------------------------|
|-8---8---------------------------|-5---------------3---------------|
|-6---6---------------------------|---------------------------------|


                                                    PM  PM  PM  PM
|=1===2===3===4===5===6===7===8===|=1===2===3===4===5===6===7===8===|
|---------------------------------|---------------------------------|
|---------------------------------|---------------------------------|
|---------------------------------|---------------------------------|
|-7---7---x---7---x---7---x---7---|-x---7---7-------5---5---5---5---|
|-5---5---x---5---x---5---x---5---|-x---5---5-------3---3---3---3---|
|---------------------------------|---------------------------------|


|=1===2===3===4===5===6===7===8===|=1===2===3===4===5===6===7===8===|
|---------------------------------|---------------------------------|
|---------------------------------|---------------------------------|
|---------------------------------|---------------------------------|
|-7---7---x---7---x---7---x---7---|-x---7---7-----------------------|
|-5---5---x---5---x---5---x---5---|-x---5---5-----------------------|
|---------------------------------|---------------------------------|


|=1===2===3===4===5===6===7===8===|=1===2===3===4===5===6===7===8===|
|---------------------------------|---------------------------------|
|---------------------------------|---------------------------------|
|---------------------------------|---------------------------------|
|---------------------------------|---------------------------------|
|-8-------x---8---8---8---8-------|-8-------x---8---8---8---8-------|
|-6-------x---6---6---6---6-------|-6-------x---6---6---6---6-------|


|=1===2===3===4===5===6===7===8===|=1===2===3===4===5===6===7===8===|
|---------------------------------|---------------------------------|
|---------------------------------|---------------------------------|
|---------------------------------|---------------------------------|
|---------------------------------|---------------------------------|
|-10------x---10--10--10--10------|-10------x---10--10--10--10------|
|-8-------x---8---8---8---8-------|-8-------x---8---8---8---8-------|


[Pre-chrous]
(Clean)
|=1===2===3===4===5===6===7===8===|=1===2===3===4===5===6===7===8===|
|-------------1-------------------|-------------0-------------------|
|---------3---------------3-------|---------1---------------1-------|
|-3-------------------------------|-2-------------------------------|
|---------------------------------|---------------------------------|
|---------------------------------|---------------------------------|
|---------------------------------|---------------------------------|


|=1===2===3===4===5===6===7===8===|=1===2===3===4===5===6===7===8===|
|-------------1-------------------|---------------------------------|
|---------3-----------------------|-------------3-------------------|
|-2-------------------------------|---------4-----------------------|
|---------------------------------|-5-------------------------------|
|---------------------------------|---------------------------------|
|---------------------------------|---------------------------------|

(Disorted)
|=1===2===3===4===5===6===7===8===|=1===2===3===4===5===6===7===8===|
|---------------------------------|---------------------------------|
|---------------------------------|---------------------------------|
|---------------------------------|---------------------------------|
|-8---8-------8---8-------8-------|-8---8---------------------------|
|-6---6---x---6---6---x---6---x---|-6---6---------------------------|
|---------------------------------|---------------------------------|

                                                        PM  PM  PM
|=1===2===3===4===5===6===7===8===|=1===2===3===4===5===6===7===8===|
|---------------------------------|---------------------------------|
|---------------------------------|---------------------------------|
|---------------------------------|---------------------5---5---5---|
|-8---8-------8---8-------8-------|-8---8---------------5---5---5---|
|-6---6---x---6---6---x---6---x---|-6---6---------------------------|
|---------------------------------|---------------------------------|

(Clean)
|=1===2===3===4===5===6===7===8===|=1===2===3===4===5===6===7===8===|
|-------------1-------------------|---------3-----------------------|
|---------3---------------3-------|-----5---------------------------|
|-3-------------------------------|-5-------------------------------|
|---------------------------------|---------------------------------|
|---------------------------------|---------------------------------|
|---------------------------------|---------------------------------|


[Chrous]
|=1===2===3===4===5===6===7===8===|=1===2===3===4===5===6===7===8===|
|---------------------------------|---------------------------------|
|---------------------------------|---------------------------------|
|---------------------------------|---------------------------------|
|-7-------7---7---7---7---7-------|-10------10--10--10--10--10------|
|-5-------5---5---5---5---5-------|-7-------7---7---7---7---7-------|
|---------------------------------|---------------------------------|




|=1===2===3===4===5===6===7===8===|=1===2===3===4===5===6===7===8===|
|---------------------------------|---------------------------------|
|---------------------------------|---------------------------------|
|---------------------------------|---------------------------------|
|---------------------------------|---------------------------------|
|-8-------8---8---8---8---8-------|-10------10--10--10--10--10------|
|-6-------6---6---6---6---6-------|-8-------8---8---8---8---8-------|




|=1===2===3===4===5===6===7===8===|=1===2===3===4===5===6===7===8===|
|---------------------------------|---------------------------------|
|---------------------------------|---------------------------------|
|---------------------------------|---------------------------------|
|---------------------------------|---------------------------------|
|-8---8---x---x---8---8---x---x---|-8---8---x---x---8---8---x---x---|
|-6---6---x---x---6---6---x---x---|-6---6---x---x---6---6---x---x---|




|=1===2===3===4===5===6===7===8===|=1===2===3===4===5===6===7===8===|
|---------------------------------|---------------------------------|
|---------------------------------|---------------------------------|
|---------------------------------|---------------------------------|
|-----------------------------7---|-----7-----------7---7---7---7---|
|-7-------7---7---7---7---7---4---|/5---7-----------7---7---7---7---|
|-5-------5---5---5---5---5-------|---------------------------------|


|=1===2===3===4===5===6===7===8===|=1===2===3===4===5===6===7===8===|
|---------------------------------|---------------------------------|
|---------------------------------|---------------------------------|
|---------------------------------|---------------------------------|
|-7-------7---7---7---7---7-------|-10------10--10--10--10--10------|
|-5-------5---5---5---5---5-------|-7-------7---7---7---7---7-------|
|---------------------------------|---------------------------------|




|=1===2===3===4===5===6===7===8===|=1===2===3===4===5===6===7===8===|
|---------------------------------|---------------------------------|
|---------------------------------|---------------------------------|
|---------------------------------|---------------------------------|
|---------------------------------|---------------------------------|
|-8-------8---8---8---8---8-------|-10------10--10--10--10--10------|
|-6-------6---6---6---6---6-------|-8-------8---8---8---8---8-------|




|=1===2===3===4===5===6===7===8===|=1===2===3===4===5===6===7===8===|
|---------------------------------|---------------------------------|
|---------------------------------|---------------------------------|
|---------------------------------|---------------------------------|
|---------------------------------|---------------------------------|
|-8---8---x---x---8---8---x---x---|-8---8---x---x---8---8---x---x---|
|-6---6---x---x---6---6---x---x---|-6---6---x---x---6---6---x---x---|


                                    PH

|=1===2===3===4===5===6===7===8===|=1===2===3===4===5===6===7===8===|
|---------------------------------|---------------------------------|
|---------------------------------|---------------------------------|
|---------------------------------|-7-------------------------------|
|-----------------7-------7-------|-----------------7---7---7---7---|
|-7-------7---7---4-------5-------|-----------------5---5---5---5---|
|-5-------5---5-------------------|---------------------------------|




|=1===2===3===4===5===6===7===8===|=1===2===3===4===5===6===7===8===|
|---------------------------------|---------------------------------|
|---------------------------------|---------------------------------|
|---------------------------------|---------------------------------|
|---------------------------------|---------------------------------|
|-5-------5-------5-------5-------|-7-------7-------7-------7-------|
|-3-------3-------3-------3-------|-5-------5-------5-------5-------|




|=1===2===3===4===5===6===7===8===|=1===2===3===4===5===6===7===8===|
|---------------------------------|---------------------------------|
|---------------------------------|---------------------------------|
|-9-------9---x---11------11--x---|-12------12--x---14------14--x---|
|---------------------------------|---------------------------------|
|-7-------7---x---9-------9---x---|-10------10--x---12------12--x---|
|---------------------------------|---------------------------------| 




|=1===2===3===4===5===6===7===8===|=1===2===3===4===5===6===7===8===|
|---------------------------------|---------------------------------|
|---------------------------------|---------------------------------|
|---------------------------------|---------------------------------|
|-3---------------3-------3---3---|-5---------------5-------5---5---|
|-1---------------1-------1---1---|-3---------------3-------3---3---|
|---------------------------------|---------------------------------|



|=1===2===3===4===5===6===7===8===|=1===2===3===4===5===6===7===8===|
|---------------------------------|---------------------------------|
|---------------------------------|---------------------------------|
|---------------------------------|---------------------------------|
|-7---7---x---7---7---x---7---7---|---------------------------------|
|-5---5---x---5---5---x---5---5---|---------------------------------|
|---------------------------------|---------------------------------|
[Interlude]

|=1===2===3===4===5===6===7===8===|=1===2===3===4===5===6===7===8===|
|---------------------------------|---------------------------------|
|---------------------------------|---------------------------------|
|---------------------------------|---------------------------------|
|-8---8-----------8---8-----------|-8---8-----------8---8-----------|
|-6---6-----------6---6-----------|-6---6-----------6---6-----------|
|---------------------------------|---------------------------------|

Blank for 8 bars
                                                    |-----3-----|
|=1===2===3===4===5===6===7===8===|=1===2===3===4===5===6===7===8===|
|-17------17------17------17------|---------20------20---20---20----|
|-20↑-----20↑-----20↑-----20↑-----|-20--↑-------20------------------|
|---------------------------------|---------------------------------|
|---------------------------------|---------------------------------|
|---------------------------------|---------------------------------|
|---------------------------------|---------------------------------| 

  |-----3-----|   |-----3-----|     |-----3-----|
|=1===2===3===4===5===6===7===8===|=1===2===3===4===5===6===7===8===|
|-18---18---18----17---17---17----|-15---13---13----15--------------|
|---------------------------------|---------------------------------|
|---------------------------------|---------------------------------|
|---------------------------------|---------------------------------|
|---------------------------------|---------------------------------|
|---------------------------------|---------------------------------| 



|=1===2===3===4===5===6===7===8===|=1===2===3===4===5===6===7===8===|
|-13--13\-------------------------|-10------12------13------18↑-----|
|---------------------------------|---------------------------------|
|---------------------------------|---------------------------------|
|---------------------------------|---------------------------------|
|---------------------------------|---------------------------------|
|---------------------------------|---------------------------------| 

                                    PM  PM  PM  PM  PM  PM  PM  PM
|=1===2===3===4===5===6===7===8===|=1===2===3===4===5===6===7===8===|
|---------------------------------|---------------------------------|
|---------------------------------|-6---6---6---6---5---5---5---5---|
|---------------------------------|---------------------------------|
|---------------------------------|---------------------------------|
|---------------------------------|---------------------------------|
|---------------------------------|---------------------------------|

  PM  PM  PM  PM  PM  PM  PM  PM    PM  PM  PM  PM  PM  PM  PM  PM
|=1===2===3===4===5===6===7===8===|=1===2===3===4===5===6===7===8===|
|---------------------------------|---------------------------------|
|-6---6---6---6---5---5---5---5---|-6---5-------6---5-------6---5---|
|---------------------------------|---------5-----------5-----------|
|---------------------------------|---------------------------------|
|---------------------------------|---------------------------------|
|---------------------------------|---------------------------------|
  PM  PM  PM  PM  PM
|=1===2===3===4===5===6===7===8===|=1===2===3===4===5===6===7===8===|
|---------------------------------|-----------------5---x---5---5---|
|-----6---5-------6---------------|-----------------5---x---5---5---|
|-5-----------5-------------------|---------------------------------|
|---------------------------------|---------------------------------|
|---------------------------------|---------------------------------|
|---------------------------------|---------------------------------|

Repeat [Chorus]
comments
We did not receive enough feedback on this tab! Please rate:
print report bad tab
1 2 3 4 5
2 comments total.
0 reply
ironfe48 wrote on September 14 2013, 03:26 pm

it would be awesome if u put the tab for the vocals. love the song as well

+1 reply
xXWHIPxxLashXx wrote on December 5 2013, 09:50 pm

this song is awesome! Sword Art Online, anyone?

I want to post or [tab]
guest
You may want to rate the tab now too:
select rating
Please do not post tabs as comments. Select "correction" instead!