Oops, an error
Loading. Please wait.

Regret Song Tab

968 views 1 this week
no commentswrite comment
1 2 3 4 5
accurate
x 1
Autoscroll
+/-
esc
set tempo
stop
Contributor
Tuning
D# G# C# F# A# D#
Hey! There's an official Ultimate Guitar app which is ideal
for learning songs when you're away from computer. Get the app
WARNING: You are trying to view
                                    content from Ultimate-Guitar.com
                                    in an unauthorized application,
                                    which is prohibited.

                                    Please use an official Ultimate
                                    Guitar Tabs application for iPhone,
                                    iPad or Android to access legitimate
                                    chords, guitar, bass, and drum tabs
                                    from Ultimate-Guitar.com database.

                                    Type "ultimate guitar tabs" in Apple
                                    App Store's or Android Market's
                                    search to find the application.
Artist: Living With Lions
Album: Holy Shit
Track: Regret Song
Guitar 1: Rhythm, Eb standard/half step down (D#G#C#F#A#D#)
Guitar 2: Lead, Eb standard/half step down (D#G#C#F#A#D#)
NB – for some parts only 1 guitar is playing so I’ve tabbed it in both guitar 1 
and 2’s section so that you can play the whole song using guitar 1 or 2.

Guitar 1
Intro
D#|--------------------------------|--------------------------------|
A#|--------------------------------|--------------------------------|
F#|-5-----5---5---5----------------|-9-----9---9---9-7777-7777-777--|
C#|-5-----5---5---5-5-----5---5---5|-9-----9---9---9-7777-7777-777--|
G#|-3-333-3---3---3-5-----5---5---5|-7-777-7---7---7-5555-5555-555--|
D#|-----------------3-333-3---3---3|--------------------------------|
PM    ...             ...              ...    
D#|--------------------------------|--------------------------------|
A#|--------------------------------|--------------------------------|
F#|-5-----5---5---5----------------|-9-----9---9---9-7-7-7-7-7-7-7--|
C#|-5-----5---5---5-5-----5---5---5|-9-----9---9---9-7-7-7-7-7-7-7--| x2
G#|-3-333-3---3---3-5-----5---5---5|-7-777-7---7---7-5-5-5-5-5-5-5--|
D#|-----------------3-333-3---3---3|--------------------------------|
      ...             ...              ...
Verse 1
D#|--------------------------------|--------------------------------|
A#|--------------------------------|--------------------------------|
F#|--------------------------------|-7-7-7--------------------------|
C#|-2-2-2--------------------------|-7-7-7--------------------------|
G#|-2-2-2--------------------------|-5-5-5--------------------------|
D#|-0-0-0--------------------------|--------------------------------|

D#|--------------------------------|--------------------------------|
A#|--------------------------------|--------------------------------|
F#|-4-4-4--------------------------|-5-5-5-----------5-5-5----------|
C#|-4-4-4--------------------------|-5-5-5-----------5-5-5----------|
G#|-2-2-2--------------------------|-3-3-3-------333-3-3-3------333-|
D#|--------------------------------|--------------------------------|
                                                 ...            ...
D#|--------------------------------|--------------------------------|
A#|--------------------------------|--------------------------------|
F#|--------------------------------|-7-7-7--------------------------|
C#|-2-2-2--------------------------|-7-7-7--------------------------|
G#|-2-2-2--------------------------|-5-5-5--------------------------|
D#|-0-0-0--------------------------|--------------------------------|

D#|--------------------------------|--------------------------------|
A#|--------------------------------|--------------------------------|
F#|-4-4-4--------------------------|-5-5-5-----------5-5-5-5--------|
C#|-4-4-4--------------------------|-5-5-5-----------5-5-5-5--------|
G#|-2-2-2--------------------------|-3-3-3-------333-3-3-3-3--------|
D#|--------------------------------|--------------------------------|
                                                 ...
Chorus
D#|--------------------------------|--------------------------------|
A#|--------------------------------|--------------------------------|
F#|-5-5-5-5-5-5--------------------|-9-9-9-9-9-9-7-7-7-7-7-7-7-7-7-7|
C#|-5-5-5-5-5-5-5-5-5-5-5-5-5-5-5-5|-9-9-9-9-9-9-7-7-7-7-7-7-7-7-7-7| x2
G#|-3-3-3-3-3-3-5-5-5-5-5-5-5-5-5-5|-7-7-7-7-7-7-5-5-5-5-5-5-5-5-5-5|
D#|-------------3-3-3-3-3-3-3-3-3-3|--------------------------------|

Verse 2
D#|--------------------------------|--------------------------------|
A#|--------------------------------|--------------------------------|
F#|--------------------------------|-7-7-7--------------------------|
C#|-2-2-2--------------------------|-7-7-7--------------------------|
G#|-2-2-2--------------------------|-5-5-5--------------------------|
D#|-0-0-0--------------------------|--------------------------------|

D#|--------------------------------|--------------------------------|
A#|--------------------------------|--------------------------------|
F#|-4-4-4--------------------------|-5-5-5-----------5-5-5----------|
C#|-4-4-4--------------------------|-5-5-5-----------5-5-5----------|
G#|-2-2-2--------------------------|-3-3-3-------333-3-3-3------333-|
D#|--------------------------------|--------------------------------|
(Not too sure about this part)                   ...            ...
D#|----------7---------------5-----|-------------5------------------|
A#|--------------------------------|----------5---------------8-----|
F#|----4---------------4-----------|----4//7------------4//7--------|
C#|-5-----5---------5-----5--------|-5---------------5--------------|
G#|--------------------------------|--------------------------------|
D#|--------------------------------|--------------------------------|

D#|-------------------------7------|--------------------------------|
A#|---------10---------------------|----------8--------8-8-8-8------|
F#|---4//9-------------4//7--------|----4//7---------7--------------|
C#|-5---------------5--------------|-4------------------------------|
G#|--------------------------------|--------------------------------|
D#|--------------------------------|--------------------------------|

Chorus
D#|--------------------------------|--------------------------------|
A#|--------------------------------|--------------------------------|
F#|-5-5-5-5-5-5--------------------|-9-9-9-9-9-9-7-7-7-7-7-7-7-7-7-7|
C#|-5-5-5-5-5-5-5-5-5-5-5-5-5-5-5-5|-9-9-9-9-9-9-7-7-7-7-7-7-7-7-7-7| x4
G#|-3-3-3-3-3-3-5-5-5-5-5-5-5-5-5-5|-7-7-7-7-7-7-5-5-5-5-5-5-5-5-5-5|
D#|-------------3-3-3-3-3-3-3-3-3-3|--------------------------------|

Bridge pt 1
D#|--------------------------------|--------------------------------|
A#|-----8-------8-------8-------8--|-----7-------7-------7-------7--|
F#|--------------------------------|--------------------------------|
C#|--------------------------------|--------------------------------|
G#|-7-7-----7-7-----7-7-----7-7----|-5-5-----5-5-----5-5-----5-5----|
D#|--------------------------------|--------------------------------|

D#|--------------------------------|--------------------------------|
A#|-----7-------7-------7-------7--|-----5-------5-------5-------5--|
F#|--------------------------------|--------------------------------|
C#|--------------------------------|--------------------------------|
G#|-5-5-----5-5-----5-5-----5-5----|-3-3-----3-3-----3-3-----3-3----|
D#|--------------------------------|--------------------------------|

D#|--------------------------------|--------------------------------|
A#|-----8-------8-------8-------8-8|-----7-------7-------7-------7-7|
F#|-----9-------9-------9-------9-9|-----7-------7-------7-------7-7|
C#|-----9-------9-------9-------9-9|-----7-------7-------7-------7-7|
G#|-7-7-7---7-7-7---7-7-7---7-7-7-7|-5-5-5---5-5-5---5-5-5---5-5-5-5|
D#|--------------------------------|--------------------------------|
    . .     . .     . .     . .      . .     . .     . .     . . 
D#|--------------------------------|--------------------------------|
A#|-----7-------7-------7-------7-7|--------------------------------|
F#|-----7-------7-------7-------7-7|-----------------5-5-5-5-5-5-5-5|
C#|-----7-------7-------7-------7-7|-5-5-5-5-5-5-5-5-5-5-5-5-5-5-5-5|
G#|-5-5-5---5-5-5---5-5-5---5-5-5-5|-3-3-3-3-3-3-3-3-3-3-3-3-3-3-3-3|
D#|--------------------------------|--------------------------------|
    . .     . .     . .     . .      . . . . . . . . . gradually release
Bridge pt 2
D#|--------------------------------|--------------------------------|
A#|--------------------------------|--------------------------------|
F#|--------------------------------|-5-5-5-5-5-5-2-2-2-2-2-2--------|
C#|-2-2-2-2-2-2-2-2-2-2-2-2--------|-5-5-5-5-5-5-2-2-2-2-2-2--------| x2
G#|-2-2-2-2-2-2-2-2-2-2-2-2--------|-3-3-3-3-3-3-0-0-0-0-0-0--------|
D#|-0-0-0-0-0-0-0-0-0-0-0-0--------|--------------------------------|
Chorus
D#|--------------------------------|--------------------------------|
A#|--------------------------------|--------------------------------|
F#|-5-5-5-5-5-5--------------------|-9-9-9-9-9-9-7-7-7-7-7-7-7-7-7-7|
C#|-5-5-5-5-5-5-5-5-5-5-5-5-5-5-5-5|-9-9-9-9-9-9-7-7-7-7-7-7-7-7-7-7| x4
G#|-3-3-3-3-3-3-5-5-5-5-5-5-5-5-5-5|-7-7-7-7-7-7-5-5-5-5-5-5-5-5-5-5|
D#|-------------3-3-3-3-3-3-3-3-3-3|--------------------------------|

Outro
D#|--------------------------------|--------------------------------|
A#|--------------------------------|--------------------------------|
F#|-5-----5---5---5----------------|-9-----9---9---9-7-7-7-7-7-7-7--|
C#|-5-----5---5---5-5-----5---5---5|-9-----9---9---9-7-7-7-7-7-7-7--|
G#|-3-333-3---3---3-5-----5---5---5|-7-777-7---7---7-5-5-5-5-5-5-5--|
D#|-----------------3-333-3---3---3|--------------------------------|

D#|--------------------------------|--------------------------------|
A#|--------------------------------|--------------------------------|
F#|-5-----5---5---5----------------|-9-----9---9---9-7777-7777-777--|
C#|-5-----5---5---5-5-----5---5---5|-9-----9---9---9-7777-7777-777--|
G#|-3-333-3---3---3-5-----5---5---5|-7-777-7---7---7-5555-5555-555--|
D#|-----------------3-333-3---3---3|--------------------------------|
      ...             ...              ...    

Guitar 2
Intro
D#|--------------------------------|--------------------------------|
A#|--------------------------------|--------------------------------|
F#|--------------------------------|-----------------7777-7777-777--|
C#|--------------------------------|-----------------7777-7777-777--|
G#|--------------------------------|-----------------5555-5555-555--|
D#|--------------------------------|--------------------------------|

D#|--------------------------------|--------------------------------|
A#|--------------------------------|--------------------------------|
F#|----7-------4--------7---4------|-----7---5---4-------------4----|
C#|/5------7-------/5-----------7--|/5---------------5-7-7--5-----5-| x2
G#|--------------------------------|--------------------------------|
D#|--------------------------------|--------------------------------|

Verse 1
D#|--------------------------------|--------------------------------|
A#|--------------------------------|--------------------------------|
F#|--------------------------------|-7-7-7--------------------------|
C#|-2-2-2--------------------------|-7-7-7--------------------------|
G#|-2-2-2--------------------------|-5-5-5--------------------------|
D#|-0-0-0--------------------------|--------------------------------|

D#|--------------------------------|--------------------------------|
A#|--------------------------------|--------------------------------|
F#|-4-4-4--------------------------|-5-5-5-----------5-5-5----------|
C#|-4-4-4--------------------------|-5-5-5-----------5-5-5----------|
G#|-2-2-2--------------------------|-3-3-3-------333-3-3-3------333-|
D#|--------------------------------|--------------------------------|
                                                 ...            ...
D#|--------------------------------|--------------------------------|
A#|--------------------------------|--------------------------------|
F#|--------------------------------|-7-7-7--------------------------|
C#|-2-2-2--------------------------|-7-7-7--------------------------|
G#|-2-2-2--------------------------|-5-5-5--------------------------|
D#|-0-0-0--------------------------|--------------------------------|

D#|--------------------------------|--------------------------------|
A#|--------------------------------|--------------------------------|
F#|-4-4-4--------------------------|-5-5-5-----------5-5-5-5--------|
C#|-4-4-4--------------------------|-5-5-5-----------5-5-5-5--------|
G#|-2-2-2--------------------------|-3-3-3-------333-3-3-3-3--------|
D#|--------------------------------|--------------------------------|
                                                 ...

Chorus (note elongated bar, same timing as other bars)
D#|-----------------------------------------------------------------|
A#|-----------------------------------------------------------------|
F#|-12--12--12--12--12--12--14--14--14--14--14--14--16--16--16--16--|
C#|-x---x---x---x---x---x---x---x---x---x---x---x---x---x---x---x---|
G#|-10--10--10--10--10--10--12--12--12--12--12--12--14--14--14--14--|
D#|-----------------------------------------------------------------|

D#|-----------------------------------------------------------------|
A#|-----------------------------------------------------------------|
F#|-9---9---9---9---9---9---14--14--14--14--14--x---14--16--14--12--| Section
C#|-x---x---x---x---x---x---x---x---x---x---x---x---x---x---x---x---| x2
G#|-7---7---7---7---7---7---12--12--12--12--12--x---12--14--12--10--|
D#|-----------------------------------------------------------------|

Verse 2
D#|--------------------------------|--------------------------------|
A#|--------------------------------|--------------------------------|
F#|--------------------------------|-7-7-7--------------------------|
C#|-2-2-2--------------------------|-7-7-7--------------------------|
G#|-2-2-2--------------------------|-5-5-5--------------------------|
D#|-0-0-0--------------------------|--------------------------------|

D#|--------------------------------|--------------------------------|
A#|--------------------------------|--------------------------------|
F#|-4-4-4--------------------------|-5-5-5-----------5-5-5----------|
C#|-4-4-4--------------------------|-5-5-5-----------5-5-5----------|
G#|-2-2-2--------------------------|-3-3-3-------333-3-3-3------333-|
D#|--------------------------------|--------------------------------|
                                                 ...            ...
 (Not too sure about this part)
D#|----------7---------------5-----|-------------5------------------|
A#|--------------------------------|----------5---------------8-----|
F#|----4---------------4-----------|----4//7------------4//7--------|
C#|-5-----5---------5-----5--------|-5---------------5--------------|
G#|--------------------------------|--------------------------------|
D#|--------------------------------|--------------------------------|

D#|-------------------------7------|--------------------------------|
A#|---------10---------------------|----------8--------8-8-8-8------|
F#|---4//9-------------4//7--------|----4//7---------7--------------|
C#|-5---------------5--------------|-4------------------------------|
G#|--------------------------------|--------------------------------|
D#|--------------------------------|--------------------------------|

Chorus (elongated bars)
D#|-----------------------------------------------------------------|
A#|-----------------------------------------------------------------|
F#|-12--12--12--12--12--12--14--14--14--14--14--14--16--16--16--16--|
C#|-x---x---x---x---x---x---x---x---x---x---x---x---x---x---x---x---|
G#|-10--10--10--10--10--10--12--12--12--12--12--12--14--14--14--14--|
D#|-----------------------------------------------------------------|

D#|-----------------------------------------------------------------|
A#|-----------------------------------------------------------------|
F#|-9---9---9---9---9---9---14--14--14--14--14--x---14--16--14--12--|
C#|-x---x---x---x---x---x---x---x---x---x---x---x---x---x---x---x---|
G#|-7---7---7---7---7---7---12--12--12--12--12--x---12--14--12--10--|
D#|-----------------------------------------------------------------|

D#|-----------------------------------------------------------------|
A#|-----------------------------------------------------------------|
F#|-12--12--12--12--12--12--14--14--14--14--14--14--16--16--16--16--|
C#|-x---x---x---x---x---x---x---x---x---x---x---x---x---x---x---x---|
G#|-10--10--10--10--10--10--12--12--12--12--12--12--14--14--14--14--|
D#|-----------------------------------------------------------------|

D#|-----------------------------------------------------------------|
A#|-----------------------------------------------------------------|
F#|-9---9---9---9---9---9---14--14--14--14--14--x---14--16--14--12--|
C#|-x---x---x---x---x---x---x---x---x---x---x---x---x---x---x---x---|
G#|-7---7---7---7---7---7---12--12--12--12--12--x---12--14--12--10--|
D#|-----------------------------------------------------------------|

D#|-----------------------------------------------------------------|
A#|-----------------------------------------------------------------|
F#|-12--12--12--12--12--12--9---9---9---9---9---9---12--12--12--12--|
C#|-x---x---x---x---x---x---x---x---x---x---x---x---x---x---x---x---|
G#|-10--10--10--10--10--10--7---7---7---7---7---7---10--10--10--10--|
D#|-----------------------------------------------------------------|

D#|-----------------------------------------------------------------|
A#|-----------------------------------------------------------------|
F#|-9---9---9---9---9---9---14--14--14--14--14--x---14--16--14--12--|
C#|-x---x---x---x---x---x---x---x---x---x---x---x---x---x---x---x---|
G#|-7---7---7---7---7---7---12--12--12--12--12--x---12--14--12--10--|
D#|-----------------------------------------------------------------|

D#|-----------------------------------------------------------------|
A#|-----------------------------------------------------------------|
F#|-12--12--12--12--12--12--14--14--14--14--14--14--16--16--16--16--|
C#|-x---x---x---x---x---x---x---x---x---x---x---x---x---x---x---x---|
G#|-10--10--10--10--10--10--12--12--12--12--12--12--14--14--14--14--|
D#|-----------------------------------------------------------------|

D#|-----------------------------------------------------------------|
A#|-----------------------------------------------------------------|
F#|-9---9---9---9---9---9---14--14--14--14--14--x---14--16--14--12--|
C#|-x---x---x---x---x---x---x---x---x---x---x---x---x---x---x---x---|
G#|-7---7---7---7---7---7---12--12--12--12--12--x---12--14--12--10--|
D#|-----------------------------------------------------------------|

Bridge pt 1
D#|--------------------------------|--------------------------------|
A#|---------8----------------------|---------7----------------------|
F#|--------------------------------|-----7--------------------------|
C#|-----9--------------------------|-7------------------------------|
G#|-7------------------------------|--------------------------------|
D#|--------------------------------|--------------------------------|

D#|--------------------------------|-------------3-------3----------|
A#|---------7----------------------|--------------------------------|
F#|-----7--------------------------|-------------------------4br----|
C#|-7------------------------------|---------5-------5-----------5--|
G#|--------------------------------|-3---3-5---5-------5------------|
D#|--------------------------------|---5----------------------------|

D#|--------------------------------|--------------------------------|
A#|-8---8---8---8---8---8---8---8-8|-7---7---7---7---7---7---7---7-7|
F#|-9---9---9---9---9---9---9---9-9|-7---7---7---7---7---7---7---7-7|
C#|-9---9---9---9---9---9---9---9-9|-7---7---7---7---7---7---7---7-7|
G#|-7---7---7---7---7---7---7---7-7|-5---5---5---5---5---5---5---5-5|
D#|--------------------------------|--------------------------------|

D#|--------------------------------|--------------------------------|
A#|-7---7---7---7---7---7---7---7-7|--------------------------------|
F#|-7---7---7---7---7---7---7---7-7|-----------------5-5-5-5-5-5-5-5|
C#|-7---7---7---7---7---7---7---7-7|-5-5-5-5-5-5-5-5-5-5-5-5-5-5-5-5|
G#|-5---5---5---5---5---5---5---5-5|-3-3-3-3-3-3-3-3-3-3-3-3-3-3-3-3|
D#|--------------------------------|--------------------------------|
                                     . . . . . . . . . gradually release
Bridge pt 2 (elongated bars)
D#|-----------------------------------------------------------------|
A#|-----------------------------------------------------------------|
F#|-12--12--12--12--12--12--12--12--12--12--12--12------------------|
C#|-x---x---x---x---x---x---x---x---x---x---x---x-------------------|
G#|-10--10--10--10--10--10--10--10--10--10--10--10------------------|
D#|-----------------------------------------------------------------|

D#|-----------------------------------------------------------------|
A#|-----------------------------------------------------------------|
F#|-12--12--12--12--12--12--14--14--14--14--14--14------------------| Section
C#|-x---x---x---x---x---x---x---x---x---x---x---x-------------------| x2
G#|-10--10--10--10--10--10--12--12--12--12--12--12------------------|
D#|-----------------------------------------------------------------|

Chorus (elongated bars)
D#|-----------------------------------------------------------------|
A#|-----------------------------------------------------------------|
F#|-12--12--12--12--12--12--14--14--14--14--14--14--16--16--16--16--|
C#|-x---x---x---x---x---x---x---x---x---x---x---x---x---x---x---x---|
G#|-10--10--10--10--10--10--12--12--12--12--12--12--14--14--14--14--|
D#|-----------------------------------------------------------------|

D#|-----------------------------------------------------------------|
A#|-----------------------------------------------------------------|
F#|-9---9---9---9---9---9---14--14--14--14--14--x---14--16--14--12--|
C#|-x---x---x---x---x---x---x---x---x---x---x---x---x---x---x---x---|
G#|-7---7---7---7---7---7---12--12--12--12--12--x---12--14--12--10--|
D#|-----------------------------------------------------------------|

D#|-----------------------------------------------------------------|
A#|-----------------------------------------------------------------|
F#|-12--12--12--12--12--12--14--14--14--14--14--14--16--16--16--16--|
C#|-x---x---x---x---x---x---x---x---x---x---x---x---x---x---x---x---|
G#|-10--10--10--10--10--10--12--12--12--12--12--12--14--14--14--14--|
D#|-----------------------------------------------------------------|

D#|-----------------------------------------------------------------|
A#|-----------------------------------------------------------------|
F#|-9---9---9---9---9---9---14--14--14--14--14--x---14--16--14--12--|
C#|-x---x---x---x---x---x---x---x---x---x---x---x---x---x---x---x---|
G#|-7---7---7---7---7---7---12--12--12--12--12--x---12--14--12--10--|
D#|-----------------------------------------------------------------|

D#|-----------------------------------------------------------------|
A#|-----------------------------------------------------------------|
F#|-12--12--12--12--12--12--9---9---9---9---9---9---12--12--12--12--|
C#|-x---x---x---x---x---x---x---x---x---x---x---x---x---x---x---x---|
G#|-10--10--10--10--10--10--7---7---7---7---7---7---10--10--10--10--|
D#|-----------------------------------------------------------------|

D#|-----------------------------------------------------------------|
A#|-----------------------------------------------------------------|
F#|-9---9---9---9---9---9---14--14--14--14--14--x---14--16--14--12--|
C#|-x---x---x---x---x---x---x---x---x---x---x---x---x---x---x---x---|
G#|-7---7---7---7---7---7---12--12--12--12--12--x---12--14--12--10--|
D#|-----------------------------------------------------------------|

D#|-----------------------------------------------------------------|
A#|-----------------------------------------------------------------|
F#|-12--12--12--12--12--12--14--14--14--14--14--14--16--16--16--16--|
C#|-x---x---x---x---x---x---x---x---x---x---x---x---x---x---x---x---|
G#|-10--10--10--10--10--10--12--12--12--12--12--12--14--14--14--14--|
D#|-----------------------------------------------------------------|

D#|-----------------------------------------------------------------|
A#|-----------------------------------------------------------------|
F#|-9---9---9---9---9---9---14--14--14--14--14--x---14--16--14--12--|
C#|-x---x---x---x---x---x---x---x---x---x---x---x---x---x---x---x---|
G#|-7---7---7---7---7---7---12--12--12--12--12--x---12--14--12--10--|
D#|-----------------------------------------------------------------|

Outro
D#|--------------------------------|--------------------------------|
A#|--------------------------------|--------------------------------|
F#|----7-------4--------7---4------|-----7---5---4-------------4----|
C#|/5------7-------/5-----------7--|/5---------------5-7-7--5-----5-|
G#|--------------------------------|--------------------------------|
D#|--------------------------------|--------------------------------|

D#|--------------------------------|--------------------------------|
A#|--------------------------------|--------------------------------|
F#|----7-------4--------7---4------|-----7---5---4---7777-7777-777--|
C#|/5------7-------/5-----------7--|/5---------------7777-7777-777--|
G#|--------------------------------|-----------------5555-5555-555--|
D#|--------------------------------|--------------------------------|

comments
We did not receive enough feedback on this tab! Please rate:
print report bad tab
1 2 3 4 5
I want to post or [tab]
guest
You may want to rate the tab now too:
select rating
Please do not post tabs as comments. Select "correction" instead!