Oops, an error
Loading. Please wait.

Vive Le Feu Tab

173 views 1 this week
no commentswrite comment
1 2 3 4 5
please rate
add to favorites launch autoscroll
font size
0
reset
Autoscroll
+/-
esc
set tempo
stop
Contributor
Difficulty
Tuning
intermediate
D A D G B E
WARNING: You are trying to view
                                    content from Ultimate-Guitar.com
                                    in an unauthorized application,
                                    which is prohibited.

                                    Please use an official Ultimate
                                    Guitar Tabs application for iPhone,
                                    iPad or Android to access legitimate
                                    chords, guitar, bass, and drum tabs
                                    from Ultimate-Guitar.com database.

                                    Type "ultimate guitar tabs" in Apple
                                    App Store's or Android Market's
                                    search to find the application.
                            Vive Le Feu                               
                              Lofofora


                     W                E   T  T  T  T T T T T T T T T  
E||-------|-------|--------------------------------------------------|
B||-------|-------|--------------------------------------------------|
G||-------|-------|--------------------------------------------------|
D||-------|-------|--------------------------------------------------|
A||-------|-------|--------------------------------------------------|
D||-------|-------|----------------------12-12-11-10-9-8-7-6-5-4-3-2-|


  T T W                Q.     S  
--------------------------------|
--------------------------------|
--------------------------------|
--------------------------------|
--------------------------------|
--1-0---------------------------|


    E  S E  S E  S E  S E  S. S. E.  Q     3x
|------------------------------------------||
|--------------------------------0---L-----||
|*-------------------------------4---L----*||
|*-------------------------4--x--4---L----*||
|---3--3-3--3-2--2-2--2-x--2--x--2---L-----||
|---3--3-3--3-2--2-2--2-x-----x------------||


  E  S E  S E  S E  S E  S. S. E.  Q     
----------------------------------------|
-------------------------------0---L----|
-------------------------------4---L----|
-------------------------4--x--4---L----|
--3--3-3--3-2--2-2--2-x--2--x--2---L----|
--3--3-3--3-2--2-2--2-x-----x-----------|


    E  S E  S E  S E  S E  S. S. E.  Q     3x
|------------------------------------------||
|--------------------------------0---L-----||
|*-------------------------------4---L----*||
|*-------------------------4--x--4---L----*||
|---3--3-3--3-2--2-2--2-x--2--x--2---L-----||
|---3--3-3--3-2--2-2--2-x-----x------------||


  E  S E  S E  S E  S E  S. S. E.  Q     
----------------------------------------|
-------------------------------0---L----|
-------------------------------4---L----|
-------------------------4--x--4---L----|
--3--3-3--3-2--2-2--2-x--2--x--2---L----|
--3--3-3--3-2--2-2--2-x-----x-----------|


    E  S E  S E  S E  S E  S. S. E.  Q     3x
|------------------------------------------||
|--------------------------------0---L-----||
|*-------------------------------4---L----*||
|*-------------------------4--x--4---L----*||
|---3--3-3--3-2--2-2--2-x--2--x--2---L-----||
|---3--3-3--3-2--2-2--2-x-----x------------||


  E  S E  S E  S E  S E  S. S. E.  Q     
----------------------------------------|
-------------------------------0---L----|
-------------------------------4---L----|
-------------------------4--x--4---L----|
--3--3-3--3-2--2-2--2-x--2--x--2---L----|
--3--3-3--3-2--2-2--2-x-----x-----------|


  E.  E  S E.  E.  E.  E  S E.  E.   
------------------------------------|
------------------------------------|
--2---2--2-2---4---5---5--5-5---5---|
--2---2--2-2---4---5---5--5-5---5---|
--0---0--0-0---2---3---3--3-3---3---|
------------------------------------|


  E.  E.  E.  E.  E.  E  E.  S E.   
-----------------------------------|
-----------------------------------|
--5---5---4---2---4---4------------|
--5---5---4---2---4---4--2---2-2---|
--3---3---2---0---2---2--2---2-2---|
-------------------------2---2-2---|


  E.  E  S E.  E.  E.  E  S E.  E.   
------------------------------------|
------------------------------------|
--4---4--4-4---5---7---7--7-7---7---|
--4---4--4-4---5---7---7--7-7---7---|
--2---2--2-2---3---5---5--5-5---5---|
------------------------------------|


  E.  E  S E.  E.  E.  E  S E  S E.   
-------------------------------------|
-------------------------------------|
--7---7--7-5---4---2---2--2-2--2-2---|
--7---7--7-5---4---2---2--2-2--2-2---|
--5---5--5-3---2---0---0--0-0--0-0---|
-------------------------------------|


    E  S E  S E  S E  S E  S. S. E.  Q     3x
|------------------------------------------||
|--------------------------------0---L-----||
|*-------------------------------4---L----*||
|*-------------------------4--x--4---L----*||
|---3--3-3--3-2--2-2--2-x--2--x--2---L-----||
|---3--3-3--3-2--2-2--2-x-----x------------||


  E  S E  S E  S E  S E  S. S. E.  Q     
----------------------------------------|
-------------------------------0---L----|
-------------------------------4---L----|
-------------------------4--x--4---L----|
--3--3-3--3-2--2-2--2-x--2--x--2---L----|
--3--3-3--3-2--2-2--2-x-----x-----------|


    E  S E  S E  S E  S E  S. S. E.  Q     3x
|------------------------------------------||
|--------------------------------0---L-----||
|*-------------------------------4---L----*||
|*-------------------------4--x--4---L----*||
|---3--3-3--3-2--2-2--2-x--2--x--2---L-----||
|---3--3-3--3-2--2-2--2-x-----x------------||


  E  S E  S E  S E  S E  S. S. E.  Q     
----------------------------------------|
-------------------------------0---L----|
-------------------------------4---L----|
-------------------------4--x--4---L----|
--3--3-3--3-2--2-2--2-x--2--x--2---L----|
--3--3-3--3-2--2-2--2-x-----x-----------|


  E.  E  S E.  E.  E.  E  S E.  E.   
------------------------------------|
------------------------------------|
--2---2--2-2---4---5---5--5-5---5---|
--2---2--2-2---4---5---5--5-5---5---|
--0---0--0-0---2---3---3--3-3---3---|
------------------------------------|


  E.  E.  E.  E.  E.  E  E.  S E.   
-----------------------------------|
-----------------------------------|
--5---5---4---2---4---4------------|
--5---5---4---2---4---4--2---2-2---|
--3---3---2---0---2---2--2---2-2---|
-------------------------2---2-2---|


  E.  E  S E.  E.  E.  E  S E.  E.   
------------------------------------|
------------------------------------|
--4---4--4-4---5---7---7--7-7---7---|
--4---4--4-4---5---7---7--7-7---7---|
--2---2--2-2---3---5---5--5-5---5---|
------------------------------------|


  E.  E  S E.  E.  E.  E  S E  S E.   
-------------------------------------|
-------------------------------------|
--7---7--7-5---4---2---2--2-2--2-2---|
--7---7--7-5---4---2---2--2-2--2-2---|
--5---5--5-3---2---0---0--0-0--0-0---|
-------------------------------------|


    E  S E  S E  S E  S E  S. S. E.  Q     3x
|------------------------------------------||
|--------------------------------0---L-----||
|*-------------------------------4---L----*||
|*-------------------------4--x--4---L----*||
|---3--3-3--3-2--2-2--2-x--2--x--2---L-----||
|---3--3-3--3-2--2-2--2-x-----x------------||


  E  S E  S E  S E  S E  S. S. E.  Q     
----------------------------------------|
-------------------------------0---L----|
-------------------------------4---L----|
-------------------------4--x--4---L----|
--3--3-3--3-2--2-2--2-x--2--x--2---L----|
--3--3-3--3-2--2-2--2-x-----x-----------|


    E  S E  S E  S E  S E  S. S. E.  Q     3x
|------------------------------------------||
|--------------------------------0---L-----||
|*-------------------------------4---L----*||
|*-------------------------4--x--4---L----*||
|---3--3-3--3-2--2-2--2-x--2--x--2---L-----||
|---3--3-3--3-2--2-2--2-x-----x------------||


  E  S E  S E  S E  S E  S. S. E.  Q     
----------------------------------------|
-------------------------------0---L----|
-------------------------------4---L----|
-------------------------4--x--4---L----|
--3--3-3--3-2--2-2--2-x--2--x--2---L----|
--3--3-3--3-2--2-2--2-x-----x-----------|


    E.  E  S E.  E.  E.  E  S E.  E.   
|-------------------------------------|
|-------------------------------------|
|*--2---2--2-2---4---5---5--5-5---5---|
|*--2---2--2-2---4---5---5--5-5---5---|
|---0---0--0-0---2---3---3--3-3---3---|
|-------------------------------------|


  E.  E.  E.  E.  E.  E  E.  S E.   
-----------------------------------|
-----------------------------------|
--5---5---4---2---4---4------------|
--5---5---4---2---4---4--2---2-2---|
--3---3---2---0---2---2--2---2-2---|
-------------------------2---2-2---|


  E.  E  S E.  E.  E.  E  S E.  E.   
------------------------------------|
------------------------------------|
--4---4--4-4---5---7---7--7-7---7---|
--4---4--4-4---5---7---7--7-7---7---|
--2---2--2-2---3---5---5--5-5---5---|
------------------------------------|


  E.  E  S E.  E.  E.  E  S E  S E.     
--------------------------------------||
--------------------------------------||
--7---7--7-5---4---2---2--2-2--2-2---*||
--7---7--7-5---4---2---2--2-2--2-2---*||
--5---5--5-3---2---0---0--0-0--0-0----||
--------------------------------------||


   E  S E  S E  S E  S E  S. S. E.  Q     3x
------------------------------------------||
--------------------------------0---L-----||
*-------------------------------4---L----*||
*-------------------------4--x--4---L----*||
---3--3-3--3-2--2-2--2-x--2--x--2---L-----||
---3--3-3--3-2--2-2--2-x-----x------------||


  E  S E  S E  S E  S E  S. S. E.  Q     
----------------------------------------|
-------------------------------0---L----|
-------------------------------4---L----|
-------------------------4--x--4---L----|
--3--3-3--3-2--2-2--2-x--2--x--2---L----|
--3--3-3--3-2--2-2--2-x-----x-----------|


    S S S E  S S S S E  S E  S. S. E.  Q     3x
|--------------------------------------------||
|----------------------------------0---L-----||
|*---------------------------------4---L----*||
|*---------------------------4--x--4---L----*||
|---3-3-3-3--3-2-2-2-2--2-x--2--x--2---L-----||
|---3-3-3-3--3-2-2-2-2--2-x-----x------------||


  S S S E  S S S S E  S E  S. S. E.  Q     
------------------------------------------|
---------------------------------0---L----|
---------------------------------4---L----|
---------------------------4--x--4---L----|
--3-3-3-3--3-2-2-2-2--2-x--2--x--2---L----|
--3-3-3-3--3-2-2-2-2--2-x-----x-----------|


    S S S S S S S S S S S S S S S S S S S S S S S S  3x
|----------------------------------------------------||
|----------------------------------------------------||
|*--2-2-2-2-2-2-2-2-2-2-2-2-2-2-2-2-2-2-2-2-2-2-2-2-*||
|*--2-2-2-2-2-2-2-2-2-2-2-2-2-2-2-2-2-2-2-2-2-2-2-2-*||
|---0-0-0-0-0-0-0-0-0-0-0-0-0-0-0-0-0-0-0-0-0-0-0-0--||
|----------------------------------------------------||


  E  S E  S E  S E  S E  S  E   S  E   S  E   S  
------------------------------------------------|
------------------------------------------------|
--2--2-4--4-5--5-7--7-9--9-10--10-11--11-11--11-|
--2--2-4--4-5--5-7--7-9--9-10--10-11--11-11--11-|
--0--0-2--2-3--3-5--5-7--7--8---8--9---9--9---9-|
------------------------------------------------|


  E.  E  S E.  E.  E.  E  S E.  E.   
------------------------------------|
------------------------------------|
--2---2--2-2---4---5---5--5-5---5---|
--2---2--2-2---4---5---5--5-5---5---|
--0---0--0-0---2---3---3--3-3---3---|
------------------------------------|


  E.  E.  E.  E.  E.  E  E.  S E.   
-----------------------------------|
-----------------------------------|
--5---5---4---2---4---4------------|
--5---5---4---2---4---4--2---2-2---|
--3---3---2---0---2---2--2---2-2---|
-------------------------2---2-2---|


  E.  E  S E.  E.  E.  E  S E.  E.   
------------------------------------|
------------------------------------|
--4---4--4-4---5---7---7--7-7---7---|
--4---4--4-4---5---7---7--7-7---7---|
--2---2--2-2---3---5---5--5-5---5---|
------------------------------------|


  E.  E  S E.  E.  E.  E  S E  S E.   
-------------------------------------|
-------------------------------------|
--7---7--7-5---4---2---2--2-2--2-2---|
--7---7--7-5---4---2---2--2-2--2-2---|
--5---5--5-3---2---0---0--0-0--0-0---|
-------------------------------------|


  E.  E  S E.  E.  E.  E  S E.  E.   
------------------------------------|
------------------------------------|
--2---2--2-2---4---5---5--5-5---5---|
--2---2--2-2---4---5---5--5-5---5---|
--0---0--0-0---2---3---3--3-3---3---|
------------------------------------|


  E.  E.  E.  E.  E.  E  E.  S E.   
-----------------------------------|
-----------------------------------|
--5---5---4---2---4---4------------|
--5---5---4---2---4---4--2---2-2---|
--3---3---2---0---2---2--2---2-2---|
-------------------------2---2-2---|


  E.  E  S E.  E.  E.  E  S E.  E.   
------------------------------------|
------------------------------------|
--4---4--4-4---5---7---7--7-7---7---|
--4---4--4-4---5---7---7--7-7---7---|
--2---2--2-2---3---5---5--5-5---5---|
------------------------------------|


  E.  E  S E.  E.  E.  E  S E  S E.   
-------------------------------------|
-------------------------------------|
--7---7--7-5---4---2---2--2-2--2-2---|
--7---7--7-5---4---2---2--2-2--2-2---|
--5---5--5-3---2---0---0--0-0--0-0---|
-------------------------------------|


  E.  E  S E.  E.  E.  E  S E.  E.   
------------------------------------|
------------------------------------|
--2---2--2-2---4---5---5--5-5---5---|
--2---2--2-2---4---5---5--5-5---5---|
--0---0--0-0---2---3---3--3-3---3---|
------------------------------------|


  E.  E.  E.  E.  E.  E  E.  S E.   
-----------------------------------|
-----------------------------------|
--5---5---4---2---4---4------------|
--5---5---4---2---4---4--2---2-2---|
--3---3---2---0---2---2--2---2-2---|
-------------------------2---2-2---|


  E.  E  S E.  E.  E.  E  S E.  E.     H        Q    Q    H         
------------------------------------|------------------------------|
------------------------------------|------------------------------|
--4---4--4-4---5---7---7--7-7---7---|--7--------5----4----2--------|
--4---4--4-4---5---7---7--7-7---7---|--7--------5----4----2--------|
--2---2--2-2---3---5---5--5-5---5---|--5--------3----2----0--------|
------------------------------------|------------------------------|


  Beaucoup de bruit!!!                                
  W                    H           W                  
--------------------------------|-------------------||
--------------------------------|-------------------||
--L-----------------------------|-------------------||
--L--------------------L--------|-------------------||
--L--------------------L--------|--L----------------||
--------------------------------|-------------------||
comments
We did not receive enough feedback on this tab! Please rate:
print report bad tab
1 2 3 4 5
I want to post or [tab]
guest
You may want to rate the tab now too:
select rating
Please do not post tabs as comments. Select "correction" instead!