Oops, an error
Loading. Please wait.

Hard Rock Hallelujah Bass Tab

ver2
ver2

Whole song

More versions @911Tabs.com
5,690 views 1 this week
no commentswrite comment
1 2 3 4 5
worth learning
x 2
Autoscroll
+/-
esc
set tempo
stop
Contributor
Difficulty
intermediate
WARNING: You are trying to view
                                    content from Ultimate-Guitar.com
                                    in an unauthorized application,
                                    which is prohibited.

                                    Please use an official Ultimate
                                    Guitar Tabs application for iPhone,
                                    iPad or Android to access legitimate
                                    chords, guitar, bass, and drum tabs
                                    from Ultimate-Guitar.com database.

                                    Type "ultimate guitar tabs" in Apple
                                    App Store's or Android Market's
                                    search to find the application.
E E Q  E E Q     E  Q  Q  E Q    E E Q  E E Q    E Q   Q   Q E
||----------------|----------------|---------------|-----------------||
||o---------------|----------------|---------------|----------------o||
||o---------------|----------------|---------------|----------------o||
||--5-5----8-8----|-10-10--1--3-8--|-5-5----8-8----|-1-1--11--10-8---||


 Main-Riff
  E E E E E E E E   E E E  E  E E E E   E E E E E E E E   E E E E Q  E E
|-----------------|-------------------|-----------------|----------------|
|-----------------|-------------------|-----------------|----------------|
|-----------------|-------------------|-----------------|----------------|
|-8-8-8-8-7-7-7-7-|-8-7-7-10-10-7-7-8-|-8-8-8-8-7-7-7-7-|-8-7-7---1--3-7-|


  E E E E E E E E   E E E  E  E E E E   E E E E E E E E   E E Q   Q   Q
|-----------------|-------------------|-----------------|----------------|
|-----------------|-------------------|-----------------|----------------|
|-----------------|-------------------|-----------------|----------------|
|-8-8-8-8-7-7-7-7-|-8-7-7-10-10-7-7-8-|-8-8-8-8-7-7-7-7-|-8-7-7--11--10--|


   Verse 1
    E E  Q  Q  Q   E E  Q  Q  Q   E E  Q  Q  Q   E E   Q Q Q
||---------------|--------------|--------------|--------------||
||o--------------|--------------|--------------|-------------o||
||o--------------|--------------|--------------|-------------o||
||--5-5----------|-5-5----------|-3-3----------|-1-1-----7-8--||


 Pre-Chorus 1
  E E E E E E E E   E E E E E E E E   E E E E E E E E   E E E E E E E E
|-----------------|-----------------|-----------------|-----------------|
|-----------------|-----------------|-----------------|-----------------|
|-----------------|-----------------|-----------------|-----------------|
|-1-1-1-1-1-1-1-1-|-5-5-5-5-5-5-5-5-|-3-3-3-3-3-3-3-3-|-1-1-1-1-1-1-1-1-|


  E E E E E E E E   E E E E E E E E   E E E E E E E E   E E E E  E   E  E E
|-----------------|-----------------|-----------------|---------------------|
|-----------------|-----------------|-----------------|---------------------|
|-----------------|-----------------|-----------------|---------------------|
|-1-1-1-1-1-1-1-1-|-5-5-5-5-5-5-5-5-|-3-3-3-3-3-3-3-3-|-0-0-0-0-(1)-(1)-0-0-|


 Chorus 1
  E E Q  E E Q    E E Q  E E Q     E  E  E  E E E E E   E E E E E E E E
|---------------|---------------|---------------------|-----------------|
|---------------|---------------|---------------------|-----------------|
|---------------|---------------|---------------------|-----------------|
|-5-5-5--3-3-3--|-1-1-1--8-8-8--|-10-10-10-10-6-6-6-6-|-1-1-1-1-3-3-3-3-|


  E E Q  E E Q    E E Q  E E Q     E  E  E  E E E E E   E E E E E E E E
|---------------|---------------|---------------------|-----------------|
|---------------|---------------|---------------------|-----------------|
|---------------|---------------|---------------------|-----------------|
|-5-5-5--3-3-3--|-1-1-1--8-8-8--|-10-10-10-10-6-6-6-6-|-1-1-1-1-3-3-3-3-|


 Main-Riff
  E E E E E E E E   E E E  E  E E E E   E E E E E E E E   E E E E Q  E E
|-----------------|-------------------|-----------------|----------------|
|-----------------|-------------------|-----------------|----------------|
|-----------------|-------------------|-----------------|----------------|
|-8-8-8-8-7-7-7-7-|-8-7-7-10-10-7-7-8-|-8-8-8-8-7-7-7-7-|-8-7-7---1--3-7-|


  E E E E E E E E   E E E  E  E E E E   E E E E E E E E   E E Q   Q   Q
|-----------------|-------------------|-----------------|----------------|
|-----------------|-------------------|-----------------|----------------|
|-----------------|-------------------|-----------------|----------------|
|-8-8-8-8-7-7-7-7-|-8-7-7-10-10-7-7-8-|-8-8-8-8-7-7-7-7-|-8-7-7--11--10--|


   Verse 2
    E E Q  Q  Q    E E Q  Q  Q    E E Q  Q  Q    E E Q  Q  Q
||---------------|--------------|--------------|----------------||
||o--------------|--------------|--------------|---------------o||
||o--------------|--------------|--------------|---------------o||
||--5-5----------|-5-5----------|-3-3----------|-1-1----7--8----||


 Pre-Chorus 2
  E E E E E E E E   E E E E E E E E   E E E E E E E E   E E E E E E E E
|-----------------|-----------------|-----------------|-----------------|
|-----------------|-----------------|-----------------|-----------------|
|-----------------|-----------------|-----------------|-----------------|
|-1-1-1-1-1-1-1-1-|-5-5-5-5-5-5-5-5-|-3-3-3-3-3-3-3-3-|-1-1-1-1-1-1-1-1-|


  E E E E E E E E   E E E E E E E E   E E E E E E E E   E E E E  E   E  E E
|-----------------|-----------------|-----------------|---------------------|
|-----------------|-----------------|-----------------|---------------------|
|-----------------|-----------------|-----------------|---------------------|
|-1-1-1-1-1-1-1-1-|-5-5-5-5-5-5-5-5-|-3-3-3-3-3-3-3-3-|-0-0-0-0-(1)-(1)-0-0-|


   Chorus 2
    E E Q  E E Q    E E Q  E E Q     E  E  E  E E E E E   E E E E E E E E
||----------------|---------------|---------------------|-------------------||
||o---------------|---------------|---------------------|------------------o||
||o---------------|---------------|---------------------|------------------o||
||--5-5-5--3-3-3--|-1-1-1--8-8-8--|-10-10-10-10-6-6-6-6-|-1-1-1-1-3-3-3-3---||


 Brake
  W      +W     E E E E E E E E   E E E E E E E E
|-------------|-----------------|-----------------|
|-------------|-----------------|-----------------|
|-------------|-----------------|-----------------|
|-0------(0)--|-x-x-x-x-x-x-x-x-|-x-x-x-x-x-x-x-x-|


  E E E E E E E E   E E E E H
|-----------------|--------------|
|-----------------|--------------|
|-----------------|--------------|
|-x-x-x-x-x-x-x-x-|-x-x-x-x------|


  E E E E E E E E   E E E E E E E E   E E E E E E E E    H    H
|-----------------|-----------------|-----------------|------------|
|-----------------|-----------------|-----------------|------------|
|-----------------|-----------------|-----------------|------------|
|-x-x-x-x-x-x-x-x-|-x-x-x-x-x-x-x-x-|-x-x-x-x-x-x-x-x-|-10----8----|


  E E  Q  H     W          W          W
|-------------|----------|----------|------|
|-------------|----------|----------|------|
|-------------|----------|----------|------|
|-5-5---------|----------|----------|------|


  W          W       W    E Q  Q.   E E   Q  E E E E E E
|----------|-----|------|---------------|----------------|
|----------|-----|------|---------------|----------------|
|----------|-----|------|---------------|----------------|
|----------|-----|------|-0-0--0----0-0-|-0--0-0-0-0-0-0-|


  E E E E E E E E   E E E E E  E  Q
|-----------------|-------------------|----|
|-----------------|-------------------|----|
|-------------3-3-|-3-------8-10-10---|----|
|-0-0-0-0-0-0-----|---0-0-0-----------|----|


 Intro-Riff
  E E Q  Q  Q    Q.   Q  E Q    E E Q  Q  Q    Q.    Q   Q  E
|--------------|--------------|--------------|----------------|----|
|--------------|--------------|--------------|----------------|----|
|--------------|--------------|--------------|----------------|----|
|-5-5----------|------1--3-8--|-5-5----------|------11--10--8-|----|


  E E Q  Q  Q    Q.   Q  E Q    E E Q  Q  Q     E  E  E  E  H
|--------------|--------------|--------------|-------------------|
|--------------|--------------|--------------|-------------------|
|--------------|--------------|--------------|-------------------|
|-5-5----------|------1--3-8--|-5-5----------|-12-12-12-12-12----|


   Chorus 3
    E E Q  E E Q    E E Q  E E Q     E  E  E  E E E E E   E E E E E E E E     4x
||----------------|---------------|---------------------|---------------------||
||o---------------|---------------|---------------------|--------------------o||
||o---------------|---------------|---------------------|--------------------o||
||--5-5-5--3-3-3--|-1-1-1--8-8-8--|-10-10-10-10-6-6-6-6-|-1-1-1-1-3-3-3-3-----||


 Outro
  E E Q  E E Q     E  Q  Q  E Q    E E Q  E E Q    E Q   Q   Q  E
|---------------|----------------|---------------|----------------|
|---------------|----------------|---------------|----------------|
|---------------|----------------|---------------|----------------|
|-5-5----8-8----|-10-10--1--3-8--|-5-5----8-8----|-1-1--11--10--8-|


  S E E S E S E Q  S
|-----------------------*|
|-----------------------*|
|-----------------------*|
|-3-5-8-3-5-3-5---------*|

comments
We did not receive enough feedback on this tab! Please rate:
print report bad tab
1 2 3 4 5
I want to post or [tab]
guest
You may want to rate the tab now too:
select rating
Please do not post tabs as comments. Select "correction" instead!