Oops, an error
Loading. Please wait.

Corazon Bass Tab

3,528 views 15 this week
no commentswrite comment
1 2 3 4 5
please rate
add to favorites launch autoscroll
font size
0
reset
Autoscroll
+/-
esc
set tempo
stop
Contributor
WARNING: You are trying to view
                                    content from Ultimate-Guitar.com
                                    in an unauthorized application,
                                    which is prohibited.

                                    Please use an official Ultimate
                                    Guitar Tabs application for iPhone,
                                    iPad or Android to access legitimate
                                    chords, guitar, bass, and drum tabs
                                    from Ultimate-Guitar.com database.

                                    Type "ultimate guitar tabs" in Apple
                                    App Store's or Android Market's
                                    search to find the application.
La afinacion del Bajo es normal.(E A D G)

  Q=90
 4/4
  Gtr I
  W          W          Q  E S S Q  T T S E   Q  E S S E E E S S
|----------|----------|---------------------|--------------------|
|----------|----------|----5--------5-7-----|----5---------5-----|
|----------|----------|-3----3---5--------5-|------5---------5---|
|----------|----------|---------------------|-3--------3---------|


  Q  S S S S Q  E S S   Q  E E Q  E S S   Q  E S S Q  E S S
|---------------------|-----------------|-------------------|
|----5----------7-----|----5------5-----|----5--------7-----|
|-3------3---5----5---|------5------5---|-3----3---5----5---|
|---------------------|-3------3--------|-------------------|


  Q  S S E Q  E S S   Q  E E S S E Q    W          Q  E S S Q  E E
|-------------------|-----------------|----------|-----------------|
|----5--------5-----|----5------------|----------|----5--------7---|
|--------5------5---|-3----3-5--------|----------|-3----3---5----5-|
|-3--------3--------|-----------------|----------|-----------------|


  E E S S S S S S E S S S S
|---------------------------|
|-----5-------------5-------|
|---------5-------------5---|
|-3-----------3-------------|


  E E S S S S E E S S S S   E E S S S S E E S S S S
|-------------------------|-------------------------|
|-----5-----------7-------|-----5-----------5-------|
|-3-------3---5-------5---|---------5-----------5---|
|-------------------------|-3-----------3-----------|


  Q  S S S S Q  S S S S   E E S S S S E E S S E   Q  E E S S E Q
|-----------------------|-----------------------|------------------|
|----5----------7-------|-----5-----------5-----|----5-------------|
|-3------3---5------5---|---------5-----------5-|-3----3-5---------|
|-----------------------|-3-----------3---------|------------------|


  Q  S S S S Q  S S S S   Q  S S E Q  S S E   Q  S S S S Q  S S S S
|-----------------------|-------------------|------------------------|
|----5----------5-------|----4--------4-----|----5----------5--------|
|--------5----------5---|-2--------2------2-|-3----------3------3----|
|-3----------3----------|--------2----------|--------3---------------|


  Q  S S E S S S S S S S S   E E S S S S Q  E E   Q  S S E Q  E E
|--------------------------|--------------------|------------------|
|----7---------------------|-----5----------5---|----4--------4----|
|-5--------5---3---2-------|---------5--------5-|-2--------2----2--|
|--------5-------------5---|-3-----------3------|--------2---------|


  Q  S S E Q  S S E   Q  E E S S S S S S S S   E E S S S S Q  S S S S
|-------------------|------------------------|-------------------------|
|----5--------5-----|----7-----------2---4---|-----5----------5--------|
|-3--------3------3-|-5------5---5-----------|---------5----------5----|
|--------3----------|------5-----------------|-3-----------3-----------|


  E E S S E E E S S E   E E S S S S Q  S S E   Q  S S E S S S S S S S S
|---------------------|----------------------|---------------------------|
|-----4---------4-----|-----5----------------|----2----------------------|
|-2---------2-------2-|-3-------3------5-----|----------5---3---2--------|
|---------2-----------|-------------3------3-|-5------5-------------5----|


  Q  S S S S Q  S S S S   Q  S S S S Q  S S S S   Q  S S S S Q  S S E
|-----------------------|-----------------------|---------------------|
|----5----------5-------|----4----------4-------|----5----------------|
|--------5----------5---|-2----------2------2---|-3------3------5-----|
|-3----------3----------|--------2--------------|------------3------3-|


  Q  S S S S S S E S S S S   E E S S S S S S E S S S S
|--------------------------|----------------------------|
|----2-------------2---4---|-----5-------------5--------|
|------------5---5---------|---------5-------------5----|
|-5------5-----------------|-3-----------3--------------|


  E E S S S S E E S S S S   E E S S S S E E S S S S   Q  E S S Q  E E
|-------------------------|-------------------------|-----------------|
|-----5-----------7-------|-----5-----------5-------|----5--------7---|
|-3-------3---5-------5---|---------5-----------5---|-3----3---5----5-|
|-------------------------|-3-----------3-----------|-----------------|


  E E S S S S S S E S S S S
|---------------------------|
|-----5-------------5-------|
|---------5-------------5---|
|-3-----------3-------------|


  E E S S S S E E S S S S   E E S S S S E E S S S S
|-------------------------|-------------------------|
|-----5-----------7-------|-----5-----------5-------|
|-3-------3---5-------5---|---------5-----------5---|
|-------------------------|-3-----------3-----------|


  Q  E S S Q  E E   E E S S S S S S E S S S S   E E S S S S E E S S S S
|-----------------|---------------------------|--------------------------|
|----5--------7---|-----5-------------5-------|-----5-----------7--------|
|-3----3---5----5-|---------5-------------5---|-3-------3---5-------5----|
|-----------------|-3-----------3-------------|--------------------------|


  E E S S S S E E S S S S   Q  E S S E E Q    W
|-------------------------|------5----------|------|
|-----5-----------5-------|----5------------|------|
|---------5-----------5---|-3--------5------|------|
|-3-----------3-----------|-----------------|------|


  Q  E S S Q  E E   E E S S S S S S E S S S S   E E S S S S E E S S S S
|-----------------|---------------------------|--------------------------|
|----5--------7---|-----5-------------5-------|-----5-----------7--------|
|-3----3---5----5-|---------5-------------5---|-3-------3---5-------5----|
|-----------------|-3-----------3-------------|--------------------------|


  E E S S S S E E S S S S   Q  S S S S Q  S S S S   E E S S S S E E S S E
|-------------------------|-----------------------|-----------------------|
|-----5-----------5-------|----5----------7-------|-----5-----------5-----|
|---------5-----------5---|-3------3---5------5---|---------5-----------5-|
|-3-----------3-----------|-----------------------|-3-----------3---------|


  Q  E E S S E Q    Q  S S S S Q  S S S S   Q  S S E Q  S S E
|-----------------|-----------------------|-------------------|
|----5------------|----5----------5-------|----4--------4-----|
|-3----3-5--------|--------5----------5---|-2--------2------2-|
|-----------------|-3----------3----------|--------2----------|


  Q  S S S S Q  S S S S   Q  S S E S S S S S S S S   E E S S S S Q  E E
|-----------------------|--------------------------|--------------------|
|----5----------5-------|----7---------------------|-----5----------5---|
|-3----------3------3---|-5--------5---3---2-------|---------5--------5-|
|--------3--------------|--------5-------------5---|-3-----------3------|


  Q  S S E Q  E E   Q  S S E Q  S S E   Q  E E S S S S S S S S
|-----------------|-------------------|------------------------|
|----4--------4---|----5--------5-----|----7-----------2---4---|
|-2--------2----2-|-3--------3------3-|-5------5---5-----------|
|--------2--------|--------3----------|------5-----------------|


  E E S S S S Q  S S S S   E E S S E E E S S E   E E S S S S Q  S S E
|------------------------|---------------------|----------------------|
|-----5----------5-------|-----4---------4-----|-----5----------------|
|---------5----------5---|-2---------2-------2-|-3-------3------5-----|
|-3-----------3----------|---------2-----------|-------------3------3-|


  Q  S S E S S S S S S S S   Q  S S S S Q  S S S S   Q  S S S S Q  S S S S
|--------------------------|-----------------------|-----------------------|
|----2---------------------|----5----------5-------|----4----------4-------|
|----------5---3---2-------|--------5----------5---|-2----------2------2---|
|-5------5-------------5---|-3----------3----------|--------2--------------|


  Q  S S S S Q  S S E   Q  S S S S S S E S S S S   E E S S S S S S E S S S S
|---------------------|--------------------------|---------------------------|
|----5----------------|----2-------------2---4---|-----5-------------5-------|
|-3------3------5-----|------------5---5---------|---------5-------------5---|
|------------3------3-|-5------5-----------------|-3-----------3-------------|


  E E S S S S E E S S S S   E E S S S S E E S S S S   Q  E S S Q  E E
|-------------------------|-------------------------|-----------------|
|-----5-----------7-------|-----5-----------5-------|----5--------7---|
|-3-------3---5-------5---|---------5-----------5---|-3----3---5----5-|
|-------------------------|-3-----------3-----------|-----------------|


  E E S S S S S S E S S S S
|---------------------------|
|-----5-------------5-------|
|---------5-------------5---|
|-3-----------3-------------|


  E E S S S S E E S S S S   E E S S S S E E S S S S
|-------------------------|-------------------------|
|-----5-----------7-------|-----5-----------5-------|
|-3-------3---5-------5---|---------5-----------5---|
|-------------------------|-3-----------3-----------|


  Q  E S S E E Q    E E S S S S Q  S S S S   E E S S E E E S S E
|------5----------|------------------------|---------------------|
|----5------------|-----5----------5-------|-----4---------4-----|
|-3--------5------|---------5----------5---|-2---------2-------2-|
|-----------------|-3-----------3----------|---------2-----------|


  E E S S S S Q  S S E   Q  S S E S S S S S S S S   Q  S S S S Q  S S S S
|----------------------|--------------------------|------------------------|
|-----5----------------|----2---------------------|----5----------5--------|
|-3-------3------5-----|----------5---3---2-------|--------5----------5----|
|-------------3------3-|-5------5-------------5---|-3----------3-----------|


  Q  S S S S Q  S S S S   Q  S S S S Q  S S E   Q  S S S S S S E S S S S
|-----------------------|---------------------|---------------------------|
|----4----------4-------|----5----------------|----2-------------2---4----|
|-2----------2------2---|-3------3------5-----|------------5---5----------|
|--------2--------------|------------3------3-|-5------5------------------|


  E E S S S S E E S S S S   Q  S S S S Q  S S S S   E E S S S S E E S S S S
|-------------------------|-----------------------|--------------------------|
|-----5-----------5-------|----5----------7-------|-----5-----------5--------|
|---------5-----------5---|-3------3---5------5---|---------5-----------5----|
|-3-----------3-----------|-----------------------|-3-----------3------------|


  Q  S S S S Q  S S S S   E E S S S S E E S S S S   Q  S S S S Q  S S S S
|-----------------------|-------------------------|------------------------|
|----5----------7-------|-----5-----------5-------|----5----------7--------|
|-3------3---5------5---|---------5-----------5---|-3------3---5------5----|
|-----------------------|-3-----------3-----------|------------------------|


  E E S S S S E E S S S S   Q  S S S S Q  S S S S   E E S S S S E E S S S S
|-------------------------|-----------------------|--------------------------|
|-----5-----------5-------|----5----------7-------|-----5-----------5--------|
|---------5-----------5---|-3------3---5------5---|---------5-----------5----|
|-3-----------3-----------|-----------------------|-3-----------3------------|


  Q  S S S S Q  S S S S   E E S S S S E E S S S S   Q  S S S S Q  S S S S
|-----------------------|-------------------------|------------------------|
|----5----------7-------|-----5-----------5-------|----5----------7--------|
|-3------3---5------5---|---------5-----------5---|-3------3---5------5----|
|-----------------------|-3-----------3-----------|------------------------|


  E E S S S S E E S S S S   Q  S S S S Q  S S S S   E E S S S S E E S S S S
|-------------------------|-----------------------|--------------------------|
|-----5-----------5-------|----5----------7-------|-----5-----------5--------|
|---------5-----------5---|-3------3---5------5---|---------5-----------5----|
|-3-----------3-----------|-----------------------|-3-----------3------------|


  Q  S S S S Q  S S S S   E E S S S S E E S S S S   Q  S S S S Q  S S S S
|-----------------------|-------------------------|------------------------|
|----5----------7-------|-----5-----------5-------|----5----------7--------|
|-3------3---5------5---|---------5-----------5---|-3------3---5------5----|
|-----------------------|-3-----------3-----------|------------------------|


  E E S S S S E E S S S S   Q  S S S S Q  S S S S   E E S S S S E E S S S S
|-------------------------|-----------------------|--------------------------|
|-----5-----------5-------|----5----------7-------|-----5-----------5--------|
|---------5-----------5---|-3------3---5------5---|---------5-----------5----|
|-3-----------3-----------|-----------------------|-3-----------3------------|


  e. S S S S S e. S Q
|------------------------*|
|------5-----------------*|
|-3--------3---5---------*|
|------------------------*|

comments
We did not receive enough feedback on this tab! Please rate:
print report bad tab
1 2 3 4 5
I want to post or [tab]
guest
You may want to rate the tab now too:
select rating
Please do not post tabs as comments. Select "correction" instead!