Oops, an error
Loading. Please wait.

La Bamba Tab

ver1
ver1

Intro

Whole song

More versions @911Tabs.com
363,528 views 934 this week
13 commentsread comments
1 2 3 4 5
excellent!
x 53
Autoscroll
+/-
esc
set tempo
stop
Contributor
Difficulty
intermediate
Hey! There's an official Ultimate Guitar app which is ideal
for learning songs when you're away from computer. Get the app
WARNING: You are trying to view
                                    content from Ultimate-Guitar.com
                                    in an unauthorized application,
                                    which is prohibited.

                                    Please use an official Ultimate
                                    Guitar Tabs application for iPhone,
                                    iPad or Android to access legitimate
                                    chords, guitar, bass, and drum tabs
                                    from Ultimate-Guitar.com database.

                                    Type "ultimate guitar tabs" in Apple
                                    App Store's or Android Market's
                                    search to find the application.
These are the chords played throughout the song

   G {320003}
or G {320033}
   C {x32010}
   F {133211}

Intro:
E |----------------------------||----------------------------| 
B |----------------------------||----------------------------| 
G |----------------0-----2--0--||----------------------------| 
D |-------------2----3---------||-------0---3--3--2---0------| 
A |----0--2--3-----------------||----2-----------------------| 
E |-3--------------------------||-3--------------------------| 


E |----------------------------| 
B |----------------------------| 
G |----------0-----2--0--------| 
D |-------2-----3--------------| 
A |---3------------------------| 
E |----------------------------| 


               C    F  G7                 C  
Para bailar la bamba,      Para bailar la bamba, 
  
   F   G7              C     F  G7             C      F             
se necesita un poca de gracia,     una poca de gracia para mi para 

G7              C  F  G7         C         F     G7  
ti y ariba y ariba,     ay ariba ariba por ti se re  

          C       F     G7 
por ti se re, por ti se re 

          C       F  G7              C   
yo no soy marinero,    yo no soy marinero 

    F   G7           C        F   G7 
soy capitan, soy capitan, soy capitan 

C  F   G7 
bamba, bamba 

C  F   G7 
bamba, bamba 

C  F   G7 
bamba, bamba 

   C F G7 
bamba 

               C     F  G7                C 
Para bailar la bamba,      Para bailar la bamba, 
  
   F   G7              C     F  G7            C      F                
se necesita un poca de gracia,    una poca de gracia para mi para 

G7             C    F  G7  
ti y ariba y ariba  


Solo:
(p)  pull off 
(h)  hammer on 
 /   slide up 
 \   slide down 
(tr) tremolo picking 

E |----------------------------|-----------------------------| 
B |----------------------------|----------0(h)1--0------0----| 
G |-------(tr)-0---------------|-0--2-4-------------2-----2--| 
D |----------------------------|-----------------------------| 
A |----------------------------|-----------------------------| 
E |----------------------------|-----------------------------| 


E |-----------------------------|-----------------------------| 
B |-----------------------------|-----------------------------| 
G |-----2--0-----0--------0-----|-----------------------------| 
D |-----------3-----2--3------2-|---3--0--2----0--------------| 
A |-----------------------------|------------3---2--3--0------| 
E |-----------------------------|-----------------------------| 


E |----------------------------|-----------------------0--1--| 
B |----------------------------|--------------0--1--3--------| 
G |----------------------------|--------0--2-----------------| 
D |-------------------------0--|--2--3-----------------------| 
A |-2-----0--------0--2--3-----|-----------------------------| 
E |----3-----1--3--------------|-----------------------------| 

      (tremolo for bar and a half) 
E |-----0--1--(tr)3------------|-----------------------------| 
B |--3-------------------------|-----------------------------| 
G |----------------------------|-----------------------------| 
D |----------------------------|-----------------------------| 
A |----------------------------|-----------------------------| 
E |----------------------------|-----------------------------| 

(as soon as you come out of the 
 tremolo from previous bar, slide 
 up to the 12 fret then back 
 without picking) 

E |--------3/12\3--------------|-5--3(h)5(p)3\1-1(h)3(p)1(p)0-| 
B |----------------------------|------------------------------| 
G |----------------------------|------------------------------| 
D |----------------------------|------------------------------| 
A |----------------------------|------------------------------| 
E |----------------------------|------------------------------| 

E |-1-----0--------0--------0---|----------------------------| 
B |----3-----1--3-----1--3----1-|-3--1(h)3(p)1-----0---------| 
G |-----------------------------|------------2-----0---------| 
D |-----------------------------|----------------------------| 
A |-----------------------------|----------------------------| 
E |-----------------------------|----------------------------| 

E |----------------------------|----------------------------------| 
B |----------------------------|----------------------------------| 
G |--2(p)0-----0--------0------|--------0-------0-0-0-0-0-5-0-0-0-| 
D |-------------3-----2--3-----|---2--3-----2/3-------------------| 
A |----------------------------|----------3-----------------------| 
E |----------------------------|----------------------------------| 

 
E |----------------------------|-----------------------------------------| 
B |----------------------------|-----------------------------------------| 
G |-7p0-7p0-0-0-4p0-0-0-7p0-0-0-5-0-0-0-9-0-0-0-7-0-0-0-9-10-|-10/(tr)12-| 
D |----------------------------|-----------------------------------------| 
A |----------------------------|-----------------------------------------| 
E |----------------------------|-----------------------------------------| 

E |----------------------------||----------------------------| 
B |----------------------------||----------------------------| 
G |----------------0-----2--0--||----------------------------| 
D |-------------2----3---------||-------0---3--3--2---0------| 
A |----0--2--3-----------------||----2-----------------------| 
E |-3--------------------------||-3--------------------------| 


E |----------------------------| 
B |----------------------------| 
G |----------0-----2--0--------| 
D |-------2-----3--------------| 
A |---3------------------------| 
E |----------------------------| 

               C     F  G7                C  
Para bailar la bamba,      Para bailar la bamba, 
  
   F   G7              C     F  G7             C      F             
se necesita un poca de gracia,     una poca de gracia para mi para 

G7           C    F  G7           C       F     G7  
tiy ariba y ariba,     ay ariba ariba por ti se re  

          C       F     G7 
por ti se re, por ti se re 

C  F G7 
bamba,  bamba 

C  F G7 
bamba, bamba 

C  F G7 
bamba, bamba 

C  F G7 
bamba, bamba


(Outro)
(Acoustic)
(finger picking)

e|-0-----0-1----1-3--------3-1-0--0-----0-1----1-3-------3-1-0---------------|
B|-----1-------1------0-3---------3-----1------1-------0-3-------3-----------|
G|---0-------2------0------------------0------2-------0----------------------|
D|---------------------------------------------------------------------------|
A|---------------------------------------------------------------------------|
E|---------------------------------------------------------------------------|

e|-0----0-1----1-3------3-1-0---0----0-1----1-3----0--3-3--3-5-5--3-3--33--1-|
B|----1-------1------0-3-------3-----1------1-------1------------------------|
G|--0-------2------0----------------0------2-------0-------------------------|
D|---------------------------------------------------------------------------|
A|---------------------------------------------------------------------------|
E|---------------------------------------------------------------------------|

e|---0-0--0------------1--1-0--------------------------0----------------------------------------0|
B|----------1------0-3--3-----1--------3--3--3--3--1--3--0-3-1-----3--3----3----3--0-3-1---------|
G|------------2--0---------------0-2--0--4--4--4---------5-------2-0--4--2-4--5----5----------2-0|
D|---------------------------------3-------------------------------------------------------------|
A|-----------------------------------------------------------------------------------------------|
E|-----------------------------------------------------------------------------------------------|

e|-1-1-1--1--1--1---0-0-0--0--0---1-1-1--1---1--0-0-0--0-0-------0-------------------------------|
B|-------0--0---------------1-------------------------------------------1------------------------|
G|--------------2---4-----------2--0--------4--2---4-------5--2--0-0-----------------------------|
D|-----------------------------------------------------------------------------------------------|
A|-----------------------------------------------------------------------------------------------|
E|-----------------------------------------------------------------------------------------------|

e|---3--5-5-5--3--3-3-5-7-8-8--8-8-10-10--10-10--7-7--10-10--8-8--10-10------|
B|---------------------------------------------------------------------------|
G|-4-------------------------------------------------------------------------|
D|---------------------------------------------------------------------------|
A|---------------------------------------------------------------------------|
E|---------------------------------------------------------------------------|


e|--10---7-7-10-10-7--10-10-10-10-10-8-8-8-8-8-10-10-10-10-10-7-7-7-7-7--10-10-10-10-10-|
B|---------------------------------------------------------------------------------------|
G|-0--0---------------0------------------------------------------------------------------|
D|---------------------------------------------------------------------------------------|
A|---------------------------------------------------------------------------------------|
E|---------------------------------------------------------------------------------------|

e|--8-8-8-8-8-10-10-10-10-10-7-7-7-7-7--10-10-10-10--8-8--8-7-5---3--3-3--1--0-0-0-|
B|-----------------------------------------------------------------------------0---|
G|---------------------------------------------------------------------------------|
D|---------------------------------------------------------------------------------|
A|---------------------------------------------------------------------------------|
E|---------------------------------------------------------------------------------|

e|-------1--1--1--8-8-8-7-5---3--3-3-1--0-0--0------1--1--1------------------|
B|-1------0-----------------------------------------1------0-----------------|
G|---2-0-----2----------------0----------------------2-0-----2---------------|
D|---------------------------------------------------------------------------|
A|---------------------------------------------------------------------------|
E|---------------------------------------------------------------------------|

e|-----0--0--0---1--0--0-----------------------------------------------------|
B|------1----------0---------------------------------------------------------|
G|--0------2---0------2---0-0----0-------------------------------------------|
D|------------------------------2-3--3-2-0--2-0------------------------------|
A|---------------------------------------------------------------------------|
E|---------------------------------------------------------------------------|
comments
print report bad tab
13 comments total. Showing first comments.
+8 reply
michaelrocks wrote on September 30 2008, 08:51 pm

hahaha this song is awesome, just because i cant understand any of the lyrics dont mean a thing, good guitar is understandable in every language

+4 reply
GuitaristWW2077 wrote on December 19 2008, 01:26 am

This is how I play the main riff of la bamba im 100% sure its right

---------------------------------------------|
---------------------------------------------|
-------------0---2-0----------------0---2-0--|
-----------2---3-----------03320---2--3------|
----0-2-3---------------2--------3-----------|
-3--------------------3----------------------|

-11111-0---11111-0------------1-0---0--------|
---------1---------1-1111-303-----3---1------|
---------------------------------------------|
---------------------------------------------|
---------------------------------------------|
---------------------------------------------|

---------------------------------------------|
1--0-----1---0---1---0-----1---0-------------|
-2---0-----2-------2---0-----2---------------|
---------------------------------------------|
---------------------------------------------|
---------------------------------------------|

then
-11111-0---11111-0------------1-0---0--------|
---------1---------1-1111-303-----3---1------|
---------------------------------------------|
---------------------------------------------|
---------------------------------------------|
---------------------------------------------|
time it how you want to.

+2 reply
J.L wrote on July 13 2009, 06:42 am

that isn't a G7 chord btw, G7 would be: 320001, what you've got is Gadd9 i think

I want to post or [tab]
guest
You may want to rate the tab now too:
select rating
Please do not post tabs as comments. Select "correction" instead!