Oops, an error
Loading. Please wait.

Heaven Tab

ver5
ver5

Intro

Solo

Interactive

More versions @911Tabs.com
122,454 views 159 this week
13 commentsread comments
1 2 3 4 5
excellent!
x 27
Autoscroll
+/-
esc
set tempo
stop
Hey! There's an official Ultimate Guitar app which is ideal
for learning songs when you're away from computer. Get the app
WARNING: You are trying to view
                                    content from Ultimate-Guitar.com
                                    in an unauthorized application,
                                    which is prohibited.

                                    Please use an official Ultimate
                                    Guitar Tabs application for iPhone,
                                    iPad or Android to access legitimate
                                    chords, guitar, bass, and drum tabs
                                    from Ultimate-Guitar.com database.

                                    Type "ultimate guitar tabs" in Apple
                                    App Store's or Android Market's
                                    search to find the application.
Los Lonely Boys
Heaven
Tuning: (Eb Ab Db Gb Bb Eb) Half-step Down

Props go out to Dave Przybylo and MysteriousMan!

 Intro:
  ~
|-7-7-----8s10-10-10-10-10-10-|-10s=8--8--12--12--12--12--12-|
|-8-8----10s12-12-12-12-12-12-|-12s10-10--13--13--13--13--13-|
|-----------------------------|------------------------------|
|-----------------------------|------------------------------|
|-----------------------------|------------------------------|
|-----------------------------|------------------------------|

|-12-10----10----10--10--10--10---|
|-13-12-12-12----12--12--12--12---|
|---------------------------------|
|---------------------------------|
|---------------------------------|
|---------------------------------|

|-10--8-----8--10--12--12--10-10----8-7-|
|-12-10-10-10--12--13--13--12----10-----|
|---------------------------------------|
|---------------------------------------|
|---------------------------------------|
|---------------------------------------|

  G                                   Am
  Gtrs I, II
  ~
|-7-7--x-x-x----8s10-10-10-10-10-10-|-10s=8--8--x-x-12--12--12--12--12-|
|-8-8--------x-10s12-12-12-12-12-12-|-12s10-10------13--13--13--13--13-|
|-----------------------------------|----------------------------------|
|-----------------------------------|----------------------------------|
|-----------------------------------|----------------------------------|
|-----------------------------------|----------------------------------|

  G
|-12s10----10--x-x-x---10--10--10--10-|
|-13s12-12-----------x-12--12--12--12-|
|-------------------------------------|
|-------------------------------------|
|-------------------------------------|
|-------------------------------------|

  Am
|-10--8-----8--10--12--12--10-10s=8--------||
|-12-10-10-10--12--13--13--12-12s10-10s8---||
|------------------------------------------||
|------------------------------------------||
|------------------------------------------||
|------------------------------------------||


 1st Guitar Solo
  G       Gsus4
  Gtr I
  ~                          ~
|-7-7-x-x--------------------------x-|
|-8-8-----x-----10b12-10p8---8-------|
|-------------x------------9---------|
|-----------x------------------------|
|------------------------------------|
|------------------------------------|

  Am            Asus4     Am     Asus4 Am
                                            ~
|-------------------10b12---10----------------|
|-8-------x-x-x-0-x------------0-10b12-10p8-8-|
|----9----------0--------------0--------------|
|---(0)---------0-----------------------------|
|---------------------------------------------|
|---------------------------------------------|

  G                GsusG                       Am
   ~~~
|------------7-8-7h8p7----7------------------|------------------------||
|-(8)---8-10-----------10---10b12r(10)-8-----|-8-8-----10-8-----8\----||
|-----9----------------------------------9---|-----9-x--x---9-7-------||
|--------------------------------------------|----------0-------------||
|--------------------------------------------|------------------------||
|--------------------------------------------|------------------------||

 1st Verse
  G    GsusG             Am
|-3-3--3---3-3-3-3-3-3-|-5-5------5-(5)-5---5-5-5---|
|-3-3--3---3-3-3-3-3-3-|-5-5------5-(5)-5---5-5-5---|
|-4-4--4h5-4-4-4-4-4-4-|-5-5------5-(5)-5---5-5-5-0-|
|-5-5--------5-5-5-5-5-|-7--------7-(7)-7---7-7-7-0-|
|----------------------|--------------------------0-|
|----------------------|----------------------------|

  G        GsusG
|-3-3------3---3-3-3-3-3-3-5--|
|-3-3------3---3-3-3-3-3-3-5--|
|-4-4------4h5-4-4-4-4-4-4-5--|
|-5-5------------5-5-5-5-5----|
|-----------------------------|
|-----------------------------|

  Am                             G        GsusG
|-5-5-5-5----------------------|-3-3------3---3-3-3-3-3-3-3-|
|-5-5-5-5----------------------|-3-3------3---3-3-3-3-3-3-3-|
|-5-5-5-5--x---5-5---5-7-5---5-|-4-4------4h5-4-4-4-4-4-4-4-|
|-7-7-7-7----7-----7-------7---|-5-5------------5-5-5-5-5-5-|
|------------------------------|----------------------------|
|------------------------------|----------------------------|

  Am           AsusAm    AsusAm
|-5-5-5-5--5-5-5---5-5-5-5---5-5-----|
|-5-5-5-5--5-5-5---5-5-5-5---5-5-x---|
|-5-5-5-5--5-5-5h7-5-5-5-5h7-5-5-x---|
|-7-7-7-7--7-7-----------------------|
|------------------------------------|
|------------------------------------|

  G        GsusG               Am
|-3-3------3---3-3-3-3-3-3-3-|-5-5-5-5-(5)-5-5-5-5----||
|-3-3------3---3-3-3-3-3-3-3-|-5-5-5-5-(5)-5-5-5-5----||
|-4-4------4h5-4-4-4-4-4-4-4-|-5-5-5-5-(5)-5-5-5-5----||
|-5-5------------5-5-5-5-5-5-|-7-7-7-7-(7)-7-7-7-7----||
|----------------------------|------------------------||
|----------------------------|------------------------||

 1st Chorus
  G        GsusG
|-3-3------3---3-3-3-3-3-3-3---|
|-3-3------3---3-3-3-3-3-3-3---|
|-4-4------4h5-4-4-4-4-4-4-4---|
|-5-5------------5-5-5-5-5-5---|
|------------------------------|
|------------------------------|


  Am       Asus4       Am      G        GsusG
|-5-5------5---5-5-5-5-5-5-5-|-3-3------3---3-3-3-3-3-3-|
|-5-5------5---5-5-5-5-5-5-5-|-3-3------3---3-3-3-3-3-3-|
|-5-5----x-6h7-7-7-7-7-5-5-5-|-4-4------4h5-4-4-4-4-4-4-|
|-7-7----x-------------------|-5-5------------5-5-5-5-5-|
|----------------------------|--------------------------|
|----------------------------|--------------------------|

  Am
|        PM------------------|
|-5-5-5------------------------|
|-5-5-5------------------------|
|-5-5-5------------------------|
|-7-7-7--x---x-5-5---5-5-5---x-|
|----------7-------7-------7---|
|------------------------------|

  G        GsusG             Am              Amadd9    Am  G
|-3-3------3---3-3-3-3-3-3-|-5-5-5-5-(5)-5-5-5h7-7-7-7-3-----|
|-3-3------3---3-3-3-3-3-3-|-5-5-5-5-(5)-5-5-5---5-5-5-3-x-3-|
|-4-4------4h5-4-4-4-4-4-4-|-5-5-5-5-(5)-5-5-5---5-5-5-5-x-4-|
|-5-5------------5-5-5-5-5-|-7-7-7-7-(7)-7-7---------------5-|
|--------------------------|---------------------------------|
|--------------------------|---------------------------------|

               GsusG
|-3-3-3-3------3---3-3-3-3-3-|
|-3-3-3-3------3---3-3-3-3-3-|
|-4-4-4-4------4h5-4-4-4-4-4-|
|-5-5-5-5------------5-5-5-5-|
|----------------------------|
|----------------------------|


2nd Guitar Solo
  Am                  G
                    ~~~~~~
|-----10-8-7-------------------|
|--------------8---------------|
|------------------7-(7)-------|
|------------------------------|
|------------------------------|
|------------------------------|

  Am
                              ~
|-------------------------------|
|-------------8---------------8-|
|-(7)---4-5-------4---5---4-----|
|-------------------------------|
|-------------------------------|
|-------------------------------|

  G                            Am
   ~~~~~~~~~~~~~~~~~~~~                  ~~~~~~
|----------------------------|-8---7-7------------------------||
|-(8)--------------(8)-------|-----------8-(8)----------------||
|------------------------7s9-|--------------------------------||
|----------------------------|--------------------------------||
|----------------------------|--------------------------------||
|----------------------------|--------------------------------||


 2nd Verse
  G    GsusG             Am
|-3-3--3---3-3-3-3-3-3-|-5-5------5-(5)-5---5-5-5---|
|-3-3--3---3-3-3-3-3-3-|-5-5------5-(5)-5---5-5-5---|
|-4-4--4h5-4-4-4-4-4-4-|-5-5------5-(5)-5---5-5-5-0-|
|-5-5--------5-5-5-5-5-|-7--------7-(7)-7---7-7-7-0-|
|----------------------|--------------------------0-|
|----------------------|----------------------------|


  G        GsusG
|-3-3------3---3-3-3-3-3-3-5--|
|-3-3------3---3-3-3-3-3-3-5--|
|-4-4------4h5-4-4-4-4-4-4-5--|
|-5-5------------5-5-5-5-5----|
|-----------------------------|
|-----------------------------|


  Am         N.C.                G        GsusG
|-5-5-5-5----------------------|-3-3------3---3-3-3-3-3-3-3-|
|-5-5-5-5----------------------|-3-3------3---3-3-3-3-3-3-3-|
|-5-5-5-5--x---5-5---5-7-5---5-|-4-4------4h5-4-4-4-4-4-4-4-|
|-7-7-7-7----7-----7-------7---|-5-5------------5-5-5-5-5-5-|
|------------------------------|----------------------------|
|------------------------------|----------------------------|


  Am
|-5-5-5-5--5-5-5---5-5-5-5---5-5-----|
|-5-5-5-5--5-5-5---5-5-5-5---5-5-x---|
|-5-5-5-5--5-5-5h7-5-5-5-5h7-5-5-x---|
|-7-7-7-7--7-7-----------------------|
|------------------------------------|
|------------------------------------|


  G        GsusG
|-3-3------3---3-3-3-3-3-3-3-|
|-3-3------3---3-3-3-3-3-3-3-|
|-4-4------4h5-4-4-4-4-4-4-4-|
|-5-5------------5-5-5-5-5-5-|
|----------------------------|
|----------------------------|


                                2nd Chorus
  Am        Asus4     Am         G        GsusG
|-5-5-5-5-5-5---5-5-5-5-------||-3-3------3---3-3-3-3-3-3-3-|
|-5-5-5-5-5-5---5-5-5-5-x-0---||-3-3------3---3-3-3-3-3-3-3-|
|-5-5-5-5-5-5h7-7-7-7-5-x-0---||-4-4------4h5-4-4-4-4-4-4-4-|
|-7-7-7-7-7-------------------||-5-5------------5-5-5-5-5-5-|
|-----------------------------||----------------------------|
|-----------------------------||----------------------------|


  Am       Asus4       Am      G        GsusG
|-5-5------5---5-5-5-5-5-5-5-|-3-3------3---3-3-3-3-3-3-|
|-5-5------5---5-5-5-5-5-5-5-|-3-3------3---3-3-3-3-3-3-|
|-5-5----x-6h7-7-7-7-7-5-5-5-|-4-4------4h5-4-4-4-4-4-4-|
|-7-7----x-------------------|-5-5------------5-5-5-5-5-|
|----------------------------|--------------------------|
|----------------------------|--------------------------|


  Am
|-5-5-5-5-5-5---5-5-5-5-----------||
|-5-5-5-5-5-5---5-5-5-5-x--0------||
|-5-5-5-5-5-5h7-7-7-7-5-x--0------||
|-7-7-7-7-7-----------------------||
|---------------------------------||
|---------------------------------||


 3rd Guitar Solo
  G
                            ~
|-10b12-(10)-10-----------------------------------|
|-----------------10pb12r(10)p8---8-----(8)-8---8-|
|-------------------------------9-------------7---|
|-------------------------------------------------|
|-------------------------------------------------|
|-------------------------------------------------|

  Am                                               G
                                                ~~~PM                ~~~~~~
|-------7-8------7--8p7----7--------------|------------10------------------|
|-10b12----10b12--------10---10pb12r(10)p8|(8)-----8------8-8-8-(8)-8-x-x--|
|-----------------------------------------|----9-----9---------------------|
|-----------------------------------------|--------------------------------|
|-----------------------------------------|--------------------------------|
|-----------------------------------------|--------------------------------|

  Am                                         G
                                         ~~~~~~~~           ~~~~~~
|x-10s12--8--7-------------------7--|-------10-0---------------------8-9-10|
|--------------10b12-10-----8-10---8|(8)---------8-8-(8)-8---8-10b12-------|
|-------------------------9---------|----9-----------------9---------------|
|-----------------------------------|--------------------------------------|
|-----------------------------------|--------------------------------------|
|-----------------------------------|--------------------------------------|

  Am
|---0---------8-9-10---0---------8-9-10---15---15\--|
|---0---10b12----------0---10b12--------------------|
|---0-x----------------0-x--------------------------|
|---------------------------------------------------|
|---------------------------------------------------|
|---------------------------------------------------|

  G
|----------8---7---0----7-7-7-|
|------------------0-10-------|
|-----------------------------|
|-----------------------------|
|-----------------------------|
|-----------------------------|
                                                                    Bridge
  Am                                                                 Am        Bbm
                                                PM--------|
|-8-7-----7--------------------------------------------------||-5-5---5--6-|
|------10---10--8-10--8----8---------------------------------||-5-5---5--6-|
|------------------------9---9---7-9-7----7------------------||-5-5---5--6-|
|---------------------------------------9---9---7-7-5----5---||-7-7---7--8-|
|------------------------------------------------------7-----||------------|
|------------------------------------------------------------||------------|

  Bm                              F       C
|-7-7-------7---------7---------|-1-1-1---0--0-0---|
|-7---------------7-------------|-1-1-1---1--1-1---|
|-7-------7---------7-----x-----|-2-2-2---0--0-0-0-|
|-9---------------------9-x---x-|-3-3-3---2--2-2---|
|-------------------------------|-3-3-3---3--3-3---|
|-------------------------------|-1-1-1------------|


  D
|-2--------|---x--------------------||
|-3--------|-----x------------------||
|-2--------|-------x----------------||
|-0--------|---------x--------------||
|----------|-----------x------------||
|----------|-------------x-20\------||


 3rd Verse
  G        GsusG             Am
|-3-3------3---3-3-3-3-3-3-|-5-5------5-(5)-5---5-5-5---|
|-3-3------3---3-3-3-3-3-3-|-5-5------5-(5)-5---5-5-5---|
|-4-4------4h5-4-4-4-4-4-4-|-5-5------5-(5)-5---5-5-5-0-|
|-5-5------------5-5-5-5-5-|-7--------7-(7)-7---7-7-7-0-|
|--------------------------|--------------------------0-|
|--------------------------|----------------------------|


  G        GsusG
|-3-3------3---3-3-3-3-3-3-5---|
|-3-3------3---3-3-3-3-3-3-5---|
|-4-4------4h5-4-4-4-4-4-4-5---|
|-5-5------------5-5-5-5-5-----|
|------------------------------|
|------------------------------|


  Am            N.C.
|-5-5-5-5----------------------------|
|-5-5-5-5----------------------------|
|-5-5-5-5-----x------5-5---5-7-5---5-|
|-7-7-7-7-------7--------7-------7---|
|------------------------------------|
|------------------------------------|


  G        GsusG               Am           AsusAm    AsusAm
|-3-3------3---3-3-3-3-3-3-3-|-5-5-5-5--5-5-5---5-5-5-5---5-5----|
|-3-3------3---3-3-3-3-3-3-3-|-5-5-5-5--5-5-5---5-5-5-5---5-5-x--|
|-4-4------4h5-4-4-4-4-4-4-4-|-5-5-5-5--5-5-5h7-5-5-5-5h7-5-5-x--|
|-5-5------------5-5-5-5-5-5-|-7-7-7-7--7-7----------------------|
|----------------------------|-----------------------------------|
|----------------------------|-----------------------------------|


  G        GsusG
|-3-3------3---3-3-3-3-3-3-3-|
|-3-3------3---3-3-3-3-3-3-3-|
|-4-4------4h5-4-4-4-4-4-4-4-|
|-5-5------------5-5-5-5-5-5-|
|----------------------------|
|----------------------------|


                                   3rd Chorus
  Am          Asus4      Am         G        GsusG
|-5-5--5--5-5-5----5-5-5-5-------||-3-3------3---3-3-3-3-3-3-3-|
|-5-5--5--5-5-5----5-5-5-5-x-0---||-3-3------3---3-3-3-3-3-3-3-|
|-5-5--5--5-5-5h=7-7-7-7-5-x-0---||-4-4------4h5-4-4-4-4-4-4-4-|
|-7-7--7--7-7--------------------||-5-5------------5-5-5-5-5-5-|
|--------------------------------||----------------------------|
|--------------------------------||----------------------------|


  Am       Asus4       Am      G        GsusG
|-5-5------5---5-5-5-5-5-5-5-|-3-3------3---3-3-3-3-3-3-|
|-5-5------5---5-5-5-5-5-5-5-|-3-3------3---3-3-3-3-3-3-|
|-5-5----x-6h7-7-7-7-7-5-5-5-|-4-4------4h5-4-4-4-4-4-4-|
|-7-7----x-------------------|-5-5------------5-5-5-5-5-|
|----------------------------|--------------------------|
|----------------------------|--------------------------|


  Am          N.C.
|           PM-------------------|
|-5-5-5----------------------------|
|-5-5-5----------------------------|
|-5-5-5----------------------------|
|-7-7-7-----x---x--5-5---5-5-5---x-|
|-------------7--------7-------7---|
|----------------------------------|


  G        GsusG             Am              Amadd9    Am  G
|-3-3------3---3-3-3-3-3-3-|-5-5-5-5-(5)-5-5-5h7-7-7-7-3-----||
|-3-3------3---3-3-3-3-3-3-|-5-5-5-5-(5)-5-5-5---5-5-5-3-x-3-||
|-4-4------4h5-4-4-4-4-4-4-|-5-5-5-5-(5)-5-5-5---5-5-5-5-x-4-||
|-5-5------------5-5-5-5-5-|-7-7-7-7-(7)-7-7---------------5-||
|--------------------------|---------------------------------||
|--------------------------|---------------------------------||


 Outro
  G                                Am
  Gtr I
|--------------------------------|-------------------------------|
|--------------------------------|-------------------------------|
|-7-7---7--7--7-(7)\-------7---7-|-5-5-5-5--7---9-----7--5s4---5-|
|-7-7-9-7-----9-(9)\-------9-9---|-7-7-7-7-----10------------x-7-|
|--------------------------------|-------------------------------|
|--------------------------------|-------------------------------|
  G
            ~~~~~~              ~
|------------------------------------|
|-------------8-(8)---------------8--|
|-4-4-----7-9---------9S(2)-0-4s9----|
|-5-5--/9-------------------0--------|
|---------------------------0--------|
|------------------------------------|

  Am
   ~~~
|---------------------------7-8p7--------|
|-(8)--------------8-(8)-10---------10---|
|-------9\---0-7s9-----------------------|
|----------0-0---------------------------|
|----------0-0---------------------------|
|----------------------------------------|

  G                                Am
|--------------------------------|----------------------------------|
|--------------------------------|----------------------------------|
|-7-7-7-7--7--7-(7)\-----x-7-7-7-|-5-5-5-5--7---9-----7--5-4-x-5----|
|-9-9-9-9--9--9-(9)\-----x-7-7-7-|-7-7-7-7-----10-----9--7-5---7-x--|
|--------------------------------|----------------------------------|
|--------------------------------|----------------------------------|

  G                                   Am
            ~~~~~~     ~~~~~~                                               ~~~
|-------------------------------7-|-8-7----7--8--10s12-12-12s10-10-8S7-7---|
|-----------8-(8)--10-8-(8)--10---|-----10-------------------------------8-|
|-4-4---7-9-----------------------|----------------------------------------|
|-5-5-7---------------------------|----------------------------------------|
|---------------------------------|----------------------------------------|
|---------------------------------|----------------------------------------|
  G
 ~~~~~
|--------10b12-(10)---10--------------|
|-(8)--------------------10b12-10p8---|
|-----------------------------------9-|
|-------------------------------------|
|-------------------------------------|
|-------------------------------------|

  Am                                      G
|------7-7-8--------------------|------7-8p7h8p7----7-8-10-8-7-8-10-8-7----|
|-8-10-------8---8-10b12-10p8---|-8-10-----------10---------------------15s|
|--------------9--------------9-|------------------------------------------|
|-------------------------------|------------------------------------------|
|-------------------------------|------------------------------------------|
|-------------------------------|------------------------------------------|

  Am
            ~~~~~~~                                    ~~
|----15----15-(15)-15----15---17b19---17b19---17b19---15---|
|-17----17------------17-----------------------------------|
|----------------------------------------------------------|
|----------------------------------------------------------|
|----------------------------------------------------------|
|----------------------------------------------------------|

  G
    ~~~~               ~~~~~~~
|-(15)----------17b19-15-(15)--------0-17b19---17b19-|
|------17-0-0-x-----------------17-0-0---------------|
|---------0-0----------------------------------------|
|----------------------------------------------------|
|----------------------------------------------------|
|----------------------------------------------------|

  Am
                 ~~                              ~~
|-(17)-17p15----15-----------15------15-17b19---15--|
|------------17----17-15h17-----17------------------|
|---------------------------------------------------|
|---------------------------------------------------|
|---------------------------------------------------|
|---------------------------------------------------|

  G
    ~~~~
|-(15)----------------------15-17p15----15---------|
|------17-15h17-15----15h17----------17------17p15-|
|------------------16------------------------------|
|--------------------------------------------------|
|--------------------------------------------------|
|--------------------------------------------------|

  Am
|-----------------------------------------------*|
|-------15-17p15----15-17p15--------------------*|
|----16----------16----------16-14-16p14-14-----*|
|-----------------------------------------------*|
|-----------------------------------------------*|
|-----------------------------------------------*|

Props go out to Dave Przybylo and MysteriousMan!

           G                  Gsus4                 Am                  Asus4
      x x 5 4 3 3          x x x 5 3 3          x x 7 5 5 5          x x x 7 5 5

        Amadd9                 Bbm                  Bm                    F
      x x x 5 5 7          x x 8 6 6 6          x x 9 7 7 7          1 3 3 2 1 1

           C                    D
      x 3 2 0 1 0          x x 0 2 3 2
comments
print report bad tab
13 comments total. Showing first comments.
0 reply
la bamba wrote on October 26 2004, 12:00 am

really raelly really nice (and long ;) ) but it looks exactly like the guitar world tab, so maybe you should credit it. but very nice job tabbing it out. cheers

0 reply
slipinkorn wrote on March 28 2005, 12:00 am

awsom tab

0 reply
guitargenius013 wrote on April 21 2005, 12:00 am

maybe someone has too much spare time

I want to post or [tab]
guest
You may want to rate the tab now too:
select rating
Please do not post tabs as comments. Select "correction" instead!