Oops, an error
Loading. Please wait.

Hammerstrike Tab

363 views 3 this week
no commentswrite comment
1 2 3 4 5
please rate
add to favorites launch autoscroll
font size
0
reset
Autoscroll
+/-
esc
set tempo
stop
Contributor
WARNING: You are trying to view
                                    content from Ultimate-Guitar.com
                                    in an unauthorized application,
                                    which is prohibited.

                                    Please use an official Ultimate
                                    Guitar Tabs application for iPhone,
                                    iPad or Android to access legitimate
                                    chords, guitar, bass, and drum tabs
                                    from Ultimate-Guitar.com database.

                                    Type "ultimate guitar tabs" in Apple
                                    App Store's or Android Market's
                                    search to find the application.
Hammerstrike

Intro: D Bb G

Bass:
G|-------------|-------------|-------------|-------------|---------------|-----------------|-
D|---7-5-7-----|-7-7-5-7-----|-------0-----|-------0-----|---------------|-----------------|-
A|---------5-5-|---------5-5-|-1-1-3-------|-1-1-3-------|---------------|-------------3-0-|-
D|-------------|-------------|---------3-3-|---------3-3-|-5-3-0-0-0-3-0-|-5-5-3-0-0-0-----|-



E ||------------|-------------|----------------|-----------------|-
B ||------------|-------------|----------------|-----------------|-
G.||------------|-------------|----------------|-----------------|-
D.||-7--5-7-----|-7-7-5-7-----|-----3----------|-----3-3---------|-
A ||--------5-5-|---------5-5-|-5-5----3-5-3-5-|-5-5-----3-5-3-5-|-
E ||------------|-------------|----------------|-----------------|-

       [-----------1st  ending----]     |[2nd ending]
E|--------------------|-----------------|----------||
B|--------------------|-----------------|----------||
G|--------------------|-----------------|----------||.
D|-5--3---------------|-5-5-3-----------|-5~-------||.
A|------5-5-5-3-5-3-5-|-------5-5-5-3-5-|----------||
E|--------------------|-----------------|----------||



E|-----------------------------|-------------------|-----------------------|-
B|-----------------------------|-------------------|-----------------------|-
G|-9--9-9-9/10-10-10-10/11-----|-------------------|-9/10-10\-/12-12-------|-
D|-------------------------12~-|-12-12-12-12\10----|-----------------10/12-|-
A|-----------------------------|----------------12-|-----------------------|-
E|-----------------------------|-------------------|-----------------------|-


E|-------------------|------------------------------|-
B|-------------------|------------------------------|-
G|-------------------|------------------------------|-
D|-12-12-12-12\10-10-|-/12\10-10-10-----------------|-
A|-------------------|--------------10-10-10/12-12~-|-
E|-------------------|------------------------------|-


E|-------------------------------------------------|-
B|-------------------------------------------------|-
G|-------------------------------------------------|-
D|-------------------------------------------------|-
A|-12-12-12-12\10-10-10/12\10-10-10-10-------------|-
E|-------------------------------------10-10\8/10~-|-



E|------------|-------------|----------------|-----------------|-
B|------------|-------------|----------------|-----------------|-
G|------------|-------------|----------------|-----------------|-
D|-7--5-7-----|-7-7-5-7-----|-----3----------|-----3-3---------|-
A|--------5-5-|---------5-5-|-5-5----3-5-3-5-|-5-5-----3-5-3-5-|-
E|------------|-------------|----------------|-----------------|-


E|------------------------|-----------|-
B|------------------------|-----------|-
G|------------------------|-----------|-
D|-----5--3---------------|-5-5-3-----|-
A|-5-5------5-5-5-3-5-3-5-|-------5~--|-
E|------------------------|-----------|-



E|-------------|--------------|------------|------------|-
B|-------------|--------------|------------|------------|-
G|-------------|--------------|------------|------------|-
D|-5/7--4/5\4~-|--5/7--4/5\4~-|-4/7--3/5\3-|-7-7--3/5\3-|-
A|-------------|--------------|------------|------------|-
E|-------------|--------------|------------|------------|-


E|---------------------------------|-
B|---------------------------------|-
G|---------------------------------|-
D|-3/7--5-4--------5/7--7--7-7-7-7-|-
A|----------5~---5-----------------|-
E|---------------------------------|-



E|---------------|--------------|--------------|--------------|-------------|----------------|-
B|-----10-7-8-7~-|-10-10-7-8-7~-|-7/10--6-8-6~-|-10-10-6-8-6~-|-6/10-8-7----|---10-10-8-7----|-
G|-7-7-----------|--------------|--------------|--------------|----------7~-|-7-----------7~-|-
D|---------------|--------------|--------------|--------------|-------------|----------------|-
A|---------------|--------------|--------------|--------------|-------------|----------------|-
E|---------------|--------------|--------------|--------------|-------------|----------------|-


[Guitar 1]
E|-------------------|-
B|---7-8-10~-~-~-----|-
G|-7-----------------|-
D|-------------------|-
A|-------------------|-
E|-------------------|-
[Guitar 2]
E|--------------------------------------------------------|-
B|---------------10-10--10-10--10-10--10-10--10-10-(etc.)-|-
G|--------------------------------------------------------|-
D|--------------------------------------------------------|-
A|--------------------------------------------------------|-
E|--------------------------------------------------------|-
[Guitar 3]
E|------------------------------------------------------|-
B|-------------------------------------------10-8---8~--|-
G|------------------------------------------------7-----|-
D|------------------------------------------------------|-
A|------------------------------------------------------|-
E|------------------------------------------------------|-



E|------------------------------|-----------------|--------------------------|-
B|-9/10-10----------------------|-----------------|--------------------------|-
G|---------9/10-10-10--/12~-----|-----------------|-9/10-10--10/12-12--------|-
D|--------------------------12~-|-12-12-12-12\10~-|-------------------10/12~-|-
A|------------------------------|-----------------|--------------------------|-
E|------------------------------|-----------------|--------------------------|-


E|-------------------|-------------------------------------|-------------------|-
B|-------------------|-------------------------------------|-------------------|-
G|-------------------|-------------------------------------|-------------------|-
D|-12-12-12-12\10-10-|-10/12\10--10-10-10------------------|-------------------|-
A|-------------------|--------------------10--10--10/12-12-|-12-12-12-12\10-10-|-
E|-------------------|-------------------------------------|-------------------|-


E|--------------------------------|-
B|--------------------------------|-
G|--------------------------------|-
D|--------------------------------|-
A|-10/12\10--10-10-10-------------|-
E|--------------------10-10\8/10~-|-



E ||-------------------|-----------------|----------------------------|| 
B ||-5-10--10-10-10-10-|-10-12--12-12-12-|----------------------------||
G.||-5\10--10-10-10-10-|-10\12--12-12-12-|------11-----------11-------||.
D.||-------------------|-----------------|-9/12----12-----------12----||.
A ||-------------------|-----------------|------------12~----------12-||
E ||-------------------|-----------------|----------------------------||  (repeat once)

**they play this part a bit different live, usually like this:
E|-------------------|--------------------|-
B|-5-10--10----10----|-10-12--12----12----|-
G|-5/10-----10----10-|-10/12-----12----12-|-
D|-------------------|--------------------|-
A|-------------------|--------------------|-
E|-------------------|--------------------|-


E|--------------------------|--------------------------|--------------------------|-
B|--------------------------|--------------------------|--------------------------|-
G|--------------------------|--------------------------|--------------------------|-
D|--------12-12-12-12-12\10-|--------12-12-12-12-12\10-|--------12-12-12-12-12\10-|-
A|-10/12~-------------------|-10/12~-------------------|-10/12~-------------------|-
E|--------------------------|--------------------------|--------------------------|-


E|-----------------------|--------------------------------------|-
B|-----------------------|--------------------------------------|-
G|-----------------------|--------------------------------------|-
D|-10-10--10-10-10-10-10-|--------------------------------------|-
A|-----------------------|-10/12\10--10--10---------------------|-
E|-----------------------|------------------10-10\8/10~-~-~-~---|-



Solo


Bass:
G|-----------------------|-----------------------|--------------------|-
D|-----------------------|-7----7----7-----------|-5----5----5----5---|-
A|-5-----5-----5-----5---|---------------------5-|--------------------|-
D|---0-----0-----0-----0-|---7----7----7---3-3---|---5----5----5----5-|-

G|----------------------------|-
D|-5-------------3---3------5-|-
A|-----5---5--------------5---|-
E|---5---5---------3----5-----|-



Solo outro:
E|-13-10-------13------10~-|-10-8-------10---8~------|-
B|-------13-10-----10------|------10-8-----8---------|-
G|-------------------------|-------------------------|-
D|-------------------------|-------------------------|-
A|-------------------------|-------------------------|-
E|-------------------------|-------------------------|-


E|-----------------------------------------------------------|-
B|-13-10-------13------12-b-13--13--13--13--13--13-13-13r12\-|-
G|-------12-10-----10----------------------------------------|-
D|-----------------------------------------------------------|-
A|-----------------------------------------------------------|-
E|-----------------------------------------------------------|-



E ||------------|------------|-8-------8-------8-----|-8-------8-------8-----|-
B ||-10--7/8\7~-|-10--7/8\7~-|----10-8----10-8---10~-|----10-8----10-8---10~-|-
G.||------------|------------|-----------------------|-----------------------|-
D.||------------|------------|-----------------------|-----------------------|-
A ||------------|------------|-----------------------|-----------------------|-
E ||------------|------------|-----------------------|-----------------------|-

   [-----------1st  ending----]     |[2nd ending]
E|-----------|----------------------|---------||
B|-10-8-7----|---10-10-8-7------7-8-|-7--/10~-||
G|--------7~-|-7-----------7--7-----|---------||.
D|-----------|----------------------|---------||.
A|-----------|----------------------|---------||
E|-----------|----------------------|---------||



E|------------------------------|-----------------|--------------------------|-
B|-9/10-10----------------------|-----------------|--------------------------|-
G|---------9/10-10-10--/12~-----|-----------------|-9/10-10--10/12-12--------|-
D|--------------------------12~-|-12-12-12-12\10~-|-------------------10/12~-|-
A|------------------------------|-----------------|--------------------------|-
E|------------------------------|-----------------|--------------------------|-


E|-------------------|-------------------------------------|-------------------|-
B|-------------------|-------------------------------------|-------------------|-
G|-------------------|-------------------------------------|-------------------|-
D|-12-12-12-12\10-10-|-10/12\10--10-10-10------------------|-------------------|-
A|-------------------|--------------------10--10--10/12-12-|-12-12-12-12\10-10-|-
E|-------------------|-------------------------------------|-------------------|-


E|--------------------------------|-
B|--------------------------------|-
G|--------------------------------|-
D|--------------------------------|-
A|-10/12\10--10-10-10-------------|-
E|--------------------10-10\8/10~-|-



E ||-------------------|-----------------|----------------------------|| 
B ||-5-10--10-10-10-10-|-10-12--12-12-12-|----------------------------||
G.||-5\10--10-10-10-10-|-10\12--12-12-12-|------11-----------11-------||.
D.||-------------------|-----------------|-9/12----12-----------12----||.
A ||-------------------|-----------------|------------12~----------12-||
E ||-------------------|-----------------|----------------------------||  (repeat once)


E|--------------------------|--------------------------|--------------------------|-
B|--------------------------|--------------------------|--------------------------|-
G|--------------------------|--------------------------|--------------------------|-
D|--------12-12-12-12-12\10-|--------12-12-12-12-12\10-|--------12-12-12-12-12\10-|-
A|-10/12~-------------------|-10/12~-------------------|-10/12~-------------------|-
E|--------------------------|--------------------------|--------------------------|-


E|-----------------------|--------------------------------------|-
B|-----------------------|--------------------------------------|-
G|-----------------------|--------------------------------------|-
D|-10-10--10-10-10-10-10-|--------------------------------------|-
A|-----------------------|-10/12\10--10--10---------------------|-
E|-----------------------|------------------10-10\8/10~-~-~-~---|-





*Please rate and leave comments/corrections if needed*
comments
We did not receive enough feedback on this tab! Please rate:
print report bad tab
1 2 3 4 5
I want to post or [tab]
guest
You may want to rate the tab now too:
select rating
Please do not post tabs as comments. Select "correction" instead!